Song name
# A B C D E F G H I J K L M N O P Q R S T U V W X Y Z

Elly Rikkert Zuiderveld - Het Huis Bij De Zee tab

-----------------------------------------------------------------------------
                  HET HUIS BIJ DE ZEE - Elly en Rikkert Zuiderveld
                                                 (from the album Adem - 1973)
-----------------------------------------------------------------------------
Artists: http://www.ellyenrikkert.nl/
Tabbed by: thvdscheur
Email: thvdscheur@hotmail.com

Tuning: open E

In dit dromerige liedje begeleidt Rikkert zichzelf op een boezoeki. Door een
12-snarige gitaar in open E te stemmen kom je aardig in de buurt van de klank
ervan. De grepen zijn dankzij de afwijkende stemming niet zo moeilijk. Wat
lastiger is het om de juiste cadans erin te houden. Met wat hulp van Youtube
moet dat lukken. Veel plezier!

INTRO

e-|-4---4-----5-----|-7---7-----9-7---|-4---4-----4-----|-4h5p4-2-----0-----|
B-|-0-----0-----0---|-0-----0---------|-0-----0-----0---|---------0-----0---|
G#|-0-------0-----0-|-0-------0-----0-|-0-------0-----0-|-----------0-------|
E-|-0---------------|-0---------------|-0---------------|-------------------|
B-|-0---------------|-0---------------|-0---------------|-------------------|
E-|-0---------------|-0---------------|-0---------------|-0-----------------|

e-|-0---0-----0-----|-0-----------2---|-0---0-----0-----|-0h2-----4-----5---|
B-|-2-----2-----2---|-0--4--2---------|-0-----0-----0---|------0----0-----0-|
G#|-1-------1-----1-|-3---------3---3-|-0-------0-----0-|-------------0-----|
E-|-0---------------|-2---------------|-0---------------|-------------------|
B-|-2---------------|-0---------------|-0---------------|-------------------|
E-|-----------------|-----------------|-0---------------|-0-----------------|

VERSE

e-|-4---4-----5-----|-7---7-----9-7---|-4---4-----4-----|-4h5p4-2-----0-----|
B-|-0-----0-----0---|-0-----0---------|-0-----0-----0---|---------0-----0---|
G#|-0-------0-----0-|-0-------0-----0-|-0-------0-----0-|-----------0-------|
E-|-0---------------|-0---------------|-0---------------|-------------------|
B-|-0---------------|-0---------------|-0---------------|-------------------|
E-|-0---------------|-0---------------|-0---------------|-0-----------------|

e-|-0---0-----0-----|-0-----------2---|-0---0-----0-----|-0h2-----4-----5---|
B-|-2-----2-----2---|-0--4--2---------|-0-----0-----0---|------0----0-----0-|
G#|-1-------1-----1-|-3---------3---3-|-0-------0-----0-|-------------0-----|
E-|-0---------------|-2---------------|-0---------------|-------------------|
B-|-2---------------|-0---------------|-0---------------|-------------------|
E-|-----------------|-----------------|-0---------------|-0-----------------|

e-|-4---4-----5-----|-7---7-----9-7---|-4---4-----4-----|-4h5p4-2-----0-----|
B-|-0-----0-----0---|-0-----0---------|-0-----0-----0---|---------0-----0---|
G#|-0-------0-----0-|-0-------0-----0-|-0-------0-----0-|-----------0-------|
E-|-0---------------|-0---------------|-0---------------|-------------------|
B-|-0---------------|-0---------------|-0---------------|-------------------|
E-|-0---------------|-0---------------|-0---------------|-0-----------------|

e-|-0---0-----0-----|-0-----------2---|-0---0-----0-----|-0h2-----4---------|
B-|-2-----2-----2---|-0--4--2---------|-0-----0-----0---|------0----0---4---|
G#|-1-------1-----1-|-3---------3---3-|-0-------0-----0-|-------------0-----|
E-|-0---------------|-2---------------|-0---------------|-------------------|
B-|-2---------------|-0---------------|-0---------------|-------------------|
E-|-----------------|-----------------|-0---------------|-0-----------------|

INTERLUDE (between verses)

e-|-0---0-----0-----|-2---2-----2-----|-0---0-----0-----|-0h2-----4-----5---|
B-|-1-----1-----1---|-2-----2-----2---|-0-----0-----0---|------0----0-----0-|
G#|-1-------1-----1-|-3-------3-----3-|-0-------0-----0-|-------------0-----|
E-|-0---------------|-2---------------|-0---------------|-------------------|
B-|-1---------------|-0---------------|-0---------------|-------------------|
E-|-----------------|-----------------|-0---------------|-0-----------------|

OUTRO     (after last verse)

e-|-0---0-----0-----|-2---2-----2-----|-0---0-----0-----|-0h2-----4---------|
B-|-1-----1-----1---|-2-----2-----2---|-0-----0-----0---|------0----0---4---|
G#|-1-------1-----1-|-3-------3-----3-|-0-------0-----0-|-------------0-----|
E-|-0---------------|-2---------------|-0---------------|-------------------|
B-|-1---------------|-0---------------|-0---------------|-------------------|
E-|-----------------|-----------------|-0---------------|-0-----------------|

e-|-0---0-----0-----|-2---2-----2-----|-0---0-----0-----|-0h2-----4---5p4h5-|
B-|-1-----1-----1---|-2-----2-----2---|-0-----0-----0---|------0----0-------|
G#|-1-------1-----1-|-3-------3-----3-|-0-------0-----0-|-------------------|
E-|-0---------------|-2---------------|-0---------------|-------------------|
B-|-1---------------|-0---------------|-0---------------|-------------------|
E-|-----------------|-----------------|-0---------------|-0-----------------|

e-|-4---------------||
B-|-0---------------||
G#|-----------------||
E-|-----------------||
B-|-----------------||
E-|-0---------------||


Bij de zee staat een man met een schelp aan zijn oor
Hij luistert naar het eeuwig lied
Achter zijn rug zingen de golven
Hij hoort ze niet

In de tuin zit een vrouw met een boek op haar schoot
Droomt zich een tijd zonder verdriet
En om haar heen dansen er vlinders
Ze voelt ze niet

In het huis in de tuin bij de zee speelt een kind
Het houdt van alles wat het ziet
Het stuurt de golven en de vlinders
En twijfelt niet.

-----------------------------------------------------------------------------
Tap to rate this tab
# A B C D E F G H I J K L M N O P Q R S T U V W X Y Z