Song name
# A B C D E F G H I J K L M N O P Q R S T U V W X Y Z

Eloah - Blue Ale tab

blue ale
eloah
http://www.myspace.com/eloahmusic

1|-------------------------------------------------------------------------|
2|-------------------------------------------------------------------------|
3|--7h10--10--10--10-------------------------------------------------------|
4|-------------------------------------------------------------------------|
5|-------------------------------------------------------------------------|
6|-------------------------------------------------------------------------|

1|-------------------------------------------------------------------------|
2|-------------------------------------------------------------------------|
3|--7-------------10-------------10/12------------9h10--9--9--9--9--9------|
4|-------------------------------------------------------------------------|
5|-------------------------------------------------------------------------|
6|-------------------------------------------------------------------------|

1|-------------------------------------------------------------------------|
2|-------------------------------------------------------------------------|
3|-------------------------------9h10p9--7---------------------------------|
4|-------------------------------------------------------------------------|
5|-------------------------------------------------------------------------|
6|-------------------------------------------------------------------------|

1|-------------------------------------------------------------------------|
2|-------------------------------------------------------------------------|
3|--7h10--10--10--10-------------------------------------------------------|
4|-------------------------------------------------------------------------|
5|-------------------------------------------------------------------------|
6|-------------------------------------------------------------------------|

1|-------------------------------------------------------------------------|
2|-------------------------------------------------------------------------|
3|--7-------------10-------------10/12------------12\10-----------10-------|
4|-------------------------------------------------------------------------|
5|-------------------------------------------------------------------------|
6|-------------------------------------------------------------------------|

1|-------------------------------------------------------------------------|
2|-------------------------------------------------------------------------|
3|--9--9-------------------------------------------------------------------|
4|-------------------------------------------------------------------------|
5|-------------------------------------------------------------------------|
6|-------------------------------------------------------------------------|

1|-------------------------------------------------------------------------|
2|-------------------------------------------------------------------------|
3|--10--12--12-----10--12--12----------10--12--10--10--9--10--9--7---------|
4|-------------------------------------------------------------------------|
5|-------------------------------------------------------------------------|
6|-------------------------------------------------------------------------|

                 bend up 1/2 note
1|-------------------------------------------------------------------------|
2|-------------------------------------------------------------------------|
3|-----5--7--7--7b--r7-----------------------------------------------------|
4|--7-------------------7---------------7----------10--10--10--10--10/12---|
5|-------------------------------------------------------------------------|
6|-------------------------------------------------------------------------|

1|-------------------------------------------------------------------------|
2|--11--11--11--11--11/13-----------11----10-------------------------------|
3|----------------------------------------------12----10----9----9h10------|
4|-------------------------------------------------------------------------|
5|-------------------------------------------------------------------------|
6|-------------------------------------------------------------------------|

1|--------------------------| Sax cuts in ...
2|--------------------------|
3|--5/7---------9-----10----|
4|--------------------------|
5|--------------------------|
6|--------------------------|
Tap to rate this tab
 
# A B C D E F G H I J K L M N O P Q R S T U V W X Y Z