Song name
# A B C D E F G H I J K L M N O P Q R S T U V W X Y Z

Elsiane - Assemblage Point tab

E|---------------------------------------------------------|
B|---------------------------------------------------------|
G|----------4---------6-----------4------------------------|
D|-6------7---6-----7---7-6-----7---6----------------------|
A|---------------------------------------------------------|
E|---4-5--------4-5---------4-5-------4-5------------------|

E|---------------------------------------------------------|
B|---------------------------------------------------------|
G|-------8---8---6-5-8-6-----8---8---6-6-6---6-6-6---5-5-5-|
D|-7-6-5---4---2---------6-5---4---------------------------|
A|---------------------------------7-------6-------6-------|
E|---------------------------------------------------------|

E|---------------------------------------------------------|
B|---------------------------------------------------------|
G|----------4---------6-----------4------------------------|
D|-6------7---6-----7---7-6-----7---6----------------------|
A|---------------------------------------------------------|
E|---4-5--------4-5---------4-5-------4-5------------------|

E|---------------------------------------------------------|
B|---------------------------------------------------------|
G|-------8---8---6-5-8-6-----8---8---6-6-6---6-6-6---5-5-5-|
D|-7-6-5---4---2---------6-5---4---------------------------|
A|---------------------------------7-------6-------6-------|
E|---------------------------------------------------------|

E|---------------------------------------------------------|
B|-1/5-2-----4-7-5-2----4-5-2-----4-7-5-2------------------|
G|-------1-3--------1-3-------1-3---------1-3--------------|
D|---------------------------------------------------------|
A|---------------------------------------------------------|
E|---------------------------------------------------------|

E|---------------------------------------------------------|
B|---------------------------------------------------------|
G|-----8---8---6-5-8-6-----8---8---6-6-6---6-6-6---6-6-6-6-|
D|-6-5---4---2---------6-5---4---------------------------x-|
A|-------------------------------7-------6-------5-------4-|
E|-------------------------------------------------------0-|

http://www.elsiane.com/
Tap to rate this tab
 
# A B C D E F G H I J K L M N O P Q R S T U V W X Y Z