Song name
# A B C D E F G H I J K L M N O P Q R S T U V W X Y Z

Elton John - Candle In The Wind tab

Right.  This is slightly altered from a tab I found somewhere.  When I tried to
play it, a few notes didn't sound too good, so I altered some and it sounds a bit
better.  Sorry it's only chorus, I'm still figuring out the verses.  Go easy-first tab attempt!


Tabbed by:Gary
Email: gary2688@hotmail.com

Tuning: Regular

e|----------0-0-0------0-0-0-------0-0-0-2-----------0-0-0-0-2-0-------------|
B|---2-3-----------2----------2-3--------------2-3----------------3-2-2-0-0--|
G|------------------------------------------2--------------------------------|
D|---------------------------------------------------------------------------|
A|---------------------------------------------------------------------------|
E|---------------------------------------------------------------------------|

e|--0-0-2-2-2-4-4-5-4-4-2-0----------------0---------------------------------|
B|-----------------------------2----2-2-3----2-0-0-----------0---------------|
G|---------------------------2---2-----------------------2-2-----------------|
D|---------------------------------------------------2-4--------7------------|
A|---------------------------------------------------------------------------|
E|---------------------------------------------------------------------------|
Tap to rate this tab
 
# A B C D E F G H I J K L M N O P Q R S T U V W X Y Z