Song name
# A B C D E F G H I J K L M N O P Q R S T U V W X Y Z

Elton John - We Are One tab

e:--------------------------------------------------------------------------|
b:-----0--------------------------------------------------------------------|
g:0-2-----2--0------0----0-0-----0------------------------------------------|
d:---------------4------------4-----4---------------------------------------|
a:---------------------------------------0-2--------------------------------|
e:--------------------------------------------------------------------------|

e:------------|
b:------------|
g:------------|
d:-2--0--2--0-|   ( x 2 )
a:------------|
e:------------|
Tap to rate this tab
# A B C D E F G H I J K L M N O P Q R S T U V W X Y Z