Elton John - Sorry Seems To Be The Hardest Word chords

Highlighted       Show chord diagrams
---------------------------------------------------------------------------
		Sorry seems to be the hardest word - Elton John
---------------------------------------------------------------------------
Tabbed by: maguri
Tuning: Standard

Elton John
Sorry seems to be the hardest word (1976)
(Elton John/Bernie Taupin)
From "Blue Moves"

---------------------------------------------------------------------------
Capo 3rd fret
---------------------------------------------------------------------------
*Turnaround in the verses/choruses
  G     F#mb5 B7sus4
e|3---3---x---x---|
B|0---0---1-0-5-4-|
G|0---0---2---2---|
D|0---0---2--4---|
A|x---x---x---2---|
E|3---3---2-------|

**Transition to chorus
  G       D/F#
e|x---x-----------|
B|0---0-------3-0-|
G|0---0---2-0-2---|
D|0---0---0-------|
A|x---x---x-------|
E|3---3---2-------|

***OUTRO
  Em7     Em6      Em5+    Em       Am(6)   B7       Em7
e|----------------|----------------|----------------|0
B|3---3---2---2---|1---1---0---0---|1-------0-------|3
G|0---0---0---0---|0---0---0---2---|2-----------2---|0
D|2---2---2---2---|2---2---2---2---|2---4---1---1---|2
A|2-------2-------|2-------2-------|0-------2-------|2
E|0-------0-------|0-------0-------|----------------|0


---------------------------------------------------------------------------

SPECIAL CHORDS / VOICINGS

INTRO/OUTRO
          e-B-G-D-A-e
Em7       x-3-0-2-2-0
Em6       x-2-0-2-2-0
Em5+      x-1-0-2-2-0
Em        x-0-0-2-2-0


VERSE / CHORUS
F#m7b5    x-1-2-2-x-2
D/F#      x-3-2-0-x-2


CHORUS
C/E      0-1-0-2-x-x
B7/D#  (0)-0-2-1-x-x
Em/D     0-0-0-0-x-x
A/C#   (0)-2-2-2-4-x

---------------------------------------------------------------------------

Capo 3rd fret

INTRO
| Em7 Em6 | Em5+ Em | Am | B7sus4 B7 |

Em                 Em7            Am        
What have I got to do to make you love me
D                        (D7)    |G      F#m7b5  B7sus4 |* (see above)
What have I got to do to make you care
Em        Em7               Am        
What do I do when lightning strikes me
D                       (D7)      |G      F#m7b5  B7sus4 |* 
And I wake to find that you're not there
Em        Em7            Am        
What do I do to make you want me
D                     (D7) |G      F#m7b5  B7sus4 |*
What have I got to do to be heard
Em        Em7               Am        
What do I say when it's all over
    D                     (D7)  | G     D/F# |**
And sorry seems to be the hardest word

C/E      B7/D#
It's sad,  so sad
Em/D              A/C#
  It's a sad, sad situation
C                B7sus4   B7   | Em     F#m7b5  B7sus4 |*
And it's getting more and more absurd
C/E      B7/D#
It's sad,  so sad
Em/D         A/C#
Why can't we talk it over
C                  
Oh it seems to me
C/B    Am             B7sus4 B7      Em
  That sorry seems to be the hardest word

SOLO
| Em Em7 | Am | D (D7) | G  F#m7b5 B7sus4 |*
| Em Em7 | Am | D (D7) | G  D/F# |(**)

C/E      B7/D#
It's sad,  so sad
Em/D              A/C#
  It's a sad, sad situation
C                B7sus4   B7   | Em     F#m7b5  B7sus4 |*
And it's getting more and more absurd
C/E      B7/D#
It's sad,  so sad
Em/D         A/C#
Why can't we talk it over
C                  
Oh it seems to me
C/B    Am             B7sus4 B7      Em
  That sorry seems to be the hardest word

Em                       Am        
What do I do to make you love me
D                    (D7)  |G      F#m7b5  B7sus4 |* (see above)
What have I got to do to be heard
Em        Em7               Am        
What do I do when lightning strikes me
F#m7b5             B7
What have I got to do
Em                 Am
What have I got to do
     F#m7b5         B7
When sorry seems to be 
           | Em7 Em6 | Em5+ Em | Am | B7sus4 B7 | Em7***
The hardest word [OUTRO]


Tap to rate this tab
 
# A B C D E F G H I J K L M N O P Q R S T U V W X Y Z