Song name
# A B C D E F G H I J K L M N O P Q R S T U V W X Y Z

Elton John - Tiny Dancer Acoustic chords

Highlighted       Show chord diagrams
Tiny Dancer (acoustic Version)

Intro
|----------0~----------------------------0~--------------------|
|-------------1-----------------------------1------------------|
|-------0-------0----0h2---2-----------0------0---0h2---2------|
|-----2-----------2------3---3~------2----------2-----3---3~---|
|---3----------------------------0h3---------------------------|
|--------------------------------------------------------------|


C         F/A    C    F/A   C                    F/A             G
Blue jean baby,  L.A. lady,   seamstress for the band
C      F/A    C       F/A    C                       F/A        G
Pretty eyed,   pirate smile,    you'll marry a music man
F     Em7   Am7                Dm      F                Am      G7
Ballerina,    you must have seen her,    dancing in the sand
C             F/A    C      F/A       C                    G
And now she's in me, always with me,     tiny dancer in my hand

F - Em - Dm


Intro riff


C     F/A    C           F/A      C                        F/A     G
Jesus freaks, out in the street,   Handing tickets out for God
C       F/A   C        F/A    C                             F/A     G
Turning back, she just laughs,    The boulevard is not that bad
F     Em7  Am7          Dm     F                  Am       G7
Piano man, he makes his stand,     In the auditorium
C       F/A   C             F/A    C                                   G
Looking on,   she sings the songs,    The words she knows the tune she hums

F - Em - Dm


Intro


Ab            Bb
But oh how it feels so real 
Gm              Cm
Lying here with no one near
Ab                   Bb
Only you and you can hear me
                  G
When I say softly slowly


F       C           Dm
Hold me closer tiny dancer
F         C                 G
Count the headlights on the highway
F      C                 Dm
Lay me down in sheets of linen
F         C        G
you had a busy day today

F       C           Dm
Hold me closer tiny dancer
F         C                 G
Count the headlights on the highway
F      C                 Dm
Lay me down in sheets of linen
F         C        G
you had a busy day today


C         F/A    C    F/A   C                    F/A             G
Blue jean baby,  L.A. lady,   seamstress for the band
C      F/A    C       F/A    C                       F/A        G
Pretty eyed,   pirate smile,    you'll marry a music man
F     Em7   Am7                Dm      F                Am      G7
Ballerina,    you must have seen her,    dancing in the sand
C             F/A    C      F/A       C                    G
And now she's in me, always with me,     tiny dancer in my hand


Ab            Bb
But oh how it feels so real 
Gm              Cm
Lying here with no one near
Ab                   Bb
Only you and you can hear me
                  G
When I say softly slowly


F       C           Dm
Hold me closer tiny dancer
F         C                 G
Count the headlights on the highway
F      C                 Dm
Lay me down in sheets of linen
F         C        G
you had a busy day today

F       C           Dm
Hold me closer tiny dancer
F         C                 G
Count the headlights on the highway
F      C                 Dm
Lay me down in sheets of linen
F         C        G
you had a busy day today

Intro until fade

Chords Used:

Verse and Chorus
   C    F/A    G     F    Em7   Am7   Dm    G7    Em 
|-----|-----|--3--|--1--|--0--|-----|--1--|--1--|--0--|
|--1--|--1--|--3--|--1--|--3--|--1--|--3--|--0--|--0--|
|--0--|--2--|--0--|--2--|--0--|--0--|--2--|--0--|--0--|
|--2--|--3--|--0--|--3--|--0--|--2--|--0--|--0--|--2--|
|--3--|--0--|--2--|--3--|--2--|--0--|-----|--2--|--2--|
|-----|-----|--3--|--1--|--0--|-----|-----|--3--|--0--|

Bridge
  Ab    Bb    Gm    Cm     G
|--4--|--6--|--3--|-----|--3--|
|--4--|--6--|--3--|--4--|--3--|
|--5--|--7--|--3--|--5--|--0--|
|--6--|--8--|--5--|--5--|--0--|
|--6--|--8--|--5--|--3--|--2--|
|--4--|--6--|--3--|-----|--3--|


Tap to rate this tab
 
# A B C D E F G H I J K L M N O P Q R S T U V W X Y Z