Song name
# A B C D E F G H I J K L M N O P Q R S T U V W X Y Z

Elton John - Sad chords

Highlighted       Show chord diagrams
----------------------------------------------------------------------------
                                                    Sad - Elton John Vs Pnau
----------------------------------------------------------------------------

Web:    http://eltonvspnau.com
Tuning: Standard 

    (lick)      
E|-/(8)-(6)-|  
B|-/-8-p-6--|  
G|-/-8-p-7--|  
D|----------|  
A|----------|  
E|----------|  


Verses:
  BbMaj7     Bb6/9,11       BbMaj7      Bb6/9,11     Dmin7
e|----------------------------------------------|  e|------|
B|-(6)-----------4------------6-------------4---|  B|---6--|
G|--7------------5------------7-------------5---|  G|---5--|
D|--7------------5------------7-------------5---|  D|---7--|
A|----------------------------------------------|  A|-5----|
E|--6--------3-6----------3-6-----------3-6-----|  E|------|


Chorus:
  Gmin7      EbMaj7  Dmin7       G#Maj6
e|--3----------3-------5--|     e|-----|
B|--3----------3-------6--|     B|--4--|
G|--3----------3-------5--|     G|--5--|
D|--3----------5-------7--|     D|--3--|
A|--5----------6-------5--|     A|-----|
E|--3---------------------|     E|--4--|


Intro:     BbM7 | Bb6/9 | BbM7 | Bb6/9 |  x2  | Dm7


Verse:
           BbM7           Bb6/9             BbM7        Bb6/9   
         I used to know            this old scarecrow

           BbM7           Bb6/9               x2         
My joy and sorrow

           BbM7           Bb6/9             BbM7       Bb6/9
           Cast alone             between the furrows

           BbM7           Bb6/9             BbM7       Bb6/9      Dm7
      No longer sown                  by anyone


Chorus:
Gm7              Ebmaj7   Dm7                Gm7        Ebmaj7    Dm7 
Sad,                                      so sad

Gm7              Ebmaj7   Dm7                Gm7        Ebmaj7    G#M6 
Sad,                                      so sad


Verse:
Beneath these branches
I once wrote such childish words for you
I held a dandelion
When summer burned the earth again

Chorus:
Sad, so sad
Sad, so sad
Sad, so sad
Sad, so sad

Interlude:
No longer sown by anyone

Chorus:
Sad, so sad
Sad, so sad
Sad, so sad
Sad, so sad
Sad, so sad
Sad, so sad
Sad.
Tap to rate this tab
 
# A B C D E F G H I J K L M N O P Q R S T U V W X Y Z