Song name
# A B C D E F G H I J K L M N O P Q R S T U V W X Y Z

Elton John - Tiny Dancer Riff tab

I was looking for a riff from one of the greatest songs of all time and baffled me that no one
had at least tabbed the riff from "Tiny Dancer".  That pissed me off.  All they had for the song
were chords. Whooptie Doo!!!! Chords!!!! So here it is:
email: lithium1285@email.com


Tiny Dancer Main Riff
by Elton John

Chords used: C x32010, F/C 0x33211


   F                 F/C
E|-----------0----------------------1-------------------------------|
B|--------1-----3---------1-------1---------------------------------|
G|-----0------------------0h2--2------------------------------------|
D|--2---------------------3-----------------------------------------|
A|--3------------------3--------------------------------------------|
E|------------------------------------------------------------------|

E|-----------------------------------------------------------|
B|-----------------------------------------------------------|
G|-----------------------------------------------------------|
D|-----------------------------------------------------------|
A|-----------------------------------------------------------|
E|-----------------------------------------------------------|
Tap to rate this tab
# A B C D E F G H I J K L M N O P Q R S T U V W X Y Z