Song name
# A B C D E F G H I J K L M N O P Q R S T U V W X Y Z

Elton John - Step Into Christmas tab

Help us improve GuitareTab! Take a short survey!
e|------------------------2---2-------------------------|
B|------------------------3---3-------------------------|
G|------------------------2---2-------------------------|
D|--3---2---0---------0---0---0-------------------------|
A|--------------0--2----------------------------0-------|
E|----------------------------------2---3---4-----------|

e|------------------------2---2-------------------------|
B|------------------------3---3-------------------------|
G|------------------------2---2-------------------------|
D|--3---2---0---------0---0---0-------------------------|
A|--------------0--2----------------------------0-------|
E|----------------------------------2---3---4-----------|
Related for Step Into Christmas tab