Guitaretab - guitar tabs
Song name
# A B C D E F G H I J K L M N O P Q R S T U V W X Y Z

Eluveitie - Inis Mona tab

Violin intro (standart tuning) / intro au violon (accordage standart)

e---15/13--12---------------------13-12-------------------------------------|
b-------------15---15--13-13---13---------15--15--15--13---------13------15-|
g---------------------------------------------------------14--14-----14-----|
d---------------------------------------------------------------------------|
a---------------------------------------------------------------------------|
E---------------------------------------------------------------------------|

e-----------------13-12-----------------------15/13--12----------------------|
b--15---15--13-13--------15--15-15-13--13-15-------------15--15-15-13--13-15-|
g----------------------------------------------------------------------------|
d----------------------------------------------------------------------------|
a----------------------------------------------------------------------------|
e----------------------------------------------------------------------------|

Pre chorus  (~ = vibrato)
[ Tab from: http://www.guitaretab.com/e/eluveitie/206250.html ]
e-----12---13~~12-----12~~15---13------13-12----13~~12----12-13--------|
b--15--------------15------------------------15--------15-------15-----|
g----------------------------------14~~--------------------------------|
d----------------------------------------------------------------------|
a----------------------------------------------------------------------|
E----------------------------------------------------------------------|

e-13~~12----12--13------------12---13~~12----12~~15---13-----13--12-----|
b--------15----------15----15-------------15-------------------------15-|
g--------------------------------------------------------14~~-----------|
d-----------------------------------------------------------------------|
a-----------------------------------------------------------------------|
E-----------------------------------------------------------------------|

e--13~~12------12--13-----|
b----------15----------15-|
g-------------------------|
d-------------------------|
a-------------------------|
E-------------------------|


Chorus = Intro
Related for Inis Mona tab
Inis Mona chords by Eluveitie