Song name
# A B C D E F G H I J K L M N O P Q R S T U V W X Y Z

Eluveitie - Within The Grove chords

-------------------------------------------------------------------------------
			     Within the Grove - Eluveitie
-------------------------------------------------------------------------------
Tabbed by: Monash
Email:mohemish@hotmail.com
This is my first tab but Iím sure itís perfect. I played along with my flute and it 
right. Iíve not tried it on guitar yet but it should sound similar. I have written the tab 
that it can be played on bass as well as a 6string guitar, enjoy. Donít forget to rate .

Tuning: Standard

e|----------------------------------------|
B|----------------------------------------|
G|----------------------------------------|
D|----------------------------------------|
A|-------0--3--0h2p0--3--0-----3----------|
E|---3----------------------3-----0--3----|

e|----------------------------------------------------------------|
B|----------------------------------------------------------------|
G|----------------------------------------------------------------|
D|-------------------------------0--2-----0-----------------------|
A|---------0h2p0--3--0-----0--3--------3-----2--3--2h3p2--0-------|
E|---0--3---------------3------------------------------------3----|

e|------------------------------------|
B|------------------------------------|
G|------------------------------------|
D|------------------------------------|
A|---0--3--0h2p0--3--0-----3----------|
E|----------------------3-----0--3----|

e|------------------------------------------------------------|
B|------------------------------------------------------------|
G|------------------------------------------------------------|
D|---------------------------0--2-----0-----------------------|
A|---------0--3--0-----0--3--------3-----2--3--2h3p2--0-------|
E|---0--3-----------3------------------------------------3----|

e|------------------------------------------|
B|------------------------------------------|
G|---2--0-----------------------------------|
D|---------2-----023--2--0------------------|
A|------------3-------------3--0------------|
E|--------------------------------3--0ó3----|

e|----------------------------------------------------|
B|----------------------------------------------------|
G|---------2--0----------------------2--2h4p2--0ó2----|
D|---------------2-----0-------0--2-------------------|
A|------------------3-------3-------------------------|
E|---0--3---------------------------------------------|

e|----------------------------------------------------|
B|----------------------------------------------------|
G|---2h4--2--0----------------------------------------|
D|--------------2--0-----0--3--2--0-------------------|
A|--------------------3--------------3--0-------------|
E|-----------------------------------------3--0--3----|

e|--------------------------------------------------------------|
B|--------------------------------------------------------------|
G|--------------------------------------------------------------|
D|---------------------------0--2-----0---------------0---------|
A|---------0--3--0-----0--3--------3-----2--3--2h3p2-----3------|
E|---0--3-----------3-------------------------------------------|

e|--------------------------------------------------------------|
B|--------------------------------------------------------------|
G|--------------------------------------------------------------|
D|--------------------------------------------------------------|
A|---0--3--0h2p0--3--0-----3------------------------------------|
E|----------------------3-----0ó3-------------------------------|

e|----------------------------------------------------------------|
B|----------------------------------------------------------------|
G|----------------------------------------------------------------|
D|-------------------------------0--2-----0-----------------------|
A|---------0h2p0--3--0-----0--3--------3-----2--3--2h3p2--0-------|
E|---0--3---------------3------------------------------------3----|

e|------------------------------------|
B|------------------------------------|
G|------------------------------------|
D|------------------------------------|
A|---0--3--0h2p0--3--0-----3----------|
E|----------------------3-----0--3----|

e|---------------------------------------------------------------|
B|---------------------------------------------------------------|
G|---------------------------------------------------------------|
D|-------------------------------0--2--320-----------------------|
A|---------0h2p0--3--0-----0--3-------------2--3--2h3p2--0-------|
E|---0--3---------------3-----------------------------------3----|

e|------------------------------------------|
B|------------------------------------------|
G|---2--0-----------------------------------|
D|---------2-----023--2--0------------------|
A|------------3-------------3--0------------|
E|--------------------------------3--0ó3----|

e|----------------------------------------------------|
B|----------------------------------------------------|
G|---------2--0----------------------2--2h4p2--0ó2----|
D|---------------2-----0-------0--2-------------------|
A|------------------3-------3-------------------------|
E|---0--3---------------------------------------------|

e|---------------------------------------------------|
B|---------------------------------------------------|
G|---2h4--2--0---------------------------------------|
D|--------------2--0-----023--2--0-------------------|
A|--------------------3-------------3--0-------------|
E|----------------------------------------3--0--3----|

e|------------------------------------------------------------------||
B|------------------------------------------------------------------||
G|------------------------------------------------------------------||
D|-------------------------------0--2--320--------------------------||
A|---------0h2p0--3--0-----2--3-------------2--3--2h3p2--0-----0~---||
E|---0--3---------------3-----------------------------------3-------||


| h  hammer-on
| p  pull-off
| ~  let ring
Tap to rate this tab
# A B C D E F G H I J K L M N O P Q R S T U V W X Y Z