Song name
# A B C D E F G H I J K L M N O P Q R S T U V W X Y Z

Eluveitie - Thousandfold tab

Eluveitie - Thousandfold

Drop C

   Intro

D|----------------|-----------------|-----------------|-----------------|
A|----------------|-----------------|-----------------|-----------------|
F|2-2-2-2-2-2-2-2-|-2-2-2-2-2-2-----|-----------------|-----------------|
C|2-2-2-2-2-2-2-2-|-2-2-2-2-2-2-2-2-|-3-3-3-3-3-3-3-3-|-5-5-5-5-5-5-5-5-|
G|0-0-0-0-0-0-0-0-|-0-0-0-0-0-0-2-2-|-3-3-3-3-3-3-3-3-|-5-5-5-5-5-5-5-5-|
C|----------------|-------------2-2-|-3-3-3-3-3-3-3-3-|-5-5-5-5-5-5-5-5-|

D|----------------|-----------------|-----------------|-----------------|
A|----------------|-----------------|-----------------|-----------------|
F|2-2-2-2-2-2-2-2-|-2-2-2-2-2-2-----|-----------------|-----------------|
C|2-2-2-2-2-2-2-2-|-2-2-2-2-2-2-2-2-|-3-3-3-3-3-3-3-3-|-x-0-0-0-0-0-0-0-|
G|0-0-0-0-0-0-0-0-|-0-0-0-0-0-0-2-2-|-3-3-3-3-3-3-3-3-|-x-0-0-0-0-0-0-0-|
C|----------------|-------------2-2-|-3-3-3-3-3-3-3-3-|-x-0-0-0-0-0-0-0-|

D|----------------|\
A|----------------| \
F|2---------------|  \ Let ring
C|2---------------|  /
G|0---------------| /
C|----------------|/


   Verse 1


D|----------------|-----------------|-----------------|-----------------|
A|----------------|-----------------|-----------------|-----------------|
F|2-2-------------|-----------------|-2-2-------------|-----------------| 2X
C|2-2-------------|-3-3----0-0-0----|-2-2-------------|-3-3----0-0-2----|
G|0-0-------------|-3-3----0-0-0----|-0-0-------------|-3-3----0-0-2----|
C|----------------|-3-3----0-0-0----|-----------------|-3-3----0-0-2----|


  * *               	              * *		      ***  ***
D|----------------|-----------------|-----------------|-----------------|
A|----------------|-----------------|-----------------|-----------------|
F|2-2-2-----------|-----------------|-2-2-2-----------|-----------------| 2X
C|2-2-2---3-3-----|-0-0------2-2--2-|-2-2-2---3-3-----|-0-0---222--222--|
G|0-0-0---3-3-----|-0-0------2-2--2-|-0-0-0---3-3-----|-0-0---222--222--|
C|--------3-3-----|-0-0------2-2--2-|---------3-3-----|-0-0---222--222--|


   Pre-chorus


D|----------------|-----------------|
A|----------------|-----------------|
F|----------------|-----------------|
C|3-3-3-3-3-3-3-3-|-0-0-0-0-0-0-0---|
G|3-3-3-3-3-3-3-3-|-0-0-0-0-0-0-0---|
C|3-3-3-3-3-3-3-3-|-0-0-0-0-0-0-0---|


  Chorus (Same as intro)


D|----------------|-----------------|-----------------|-----------------|
A|----------------|-----------------|-----------------|-----------------|
F|2-2-2-2-2-2-2-2-|-2-2-2-2-2-2-----|-----------------|-----------------|
C|2-2-2-2-2-2-2-2-|-2-2-2-2-2-2-2-2-|-3-3-3-3-3-3-3-3-|-5-5-5-5-5-5-5-5-|
G|0-0-0-0-0-0-0-0-|-0-0-0-0-0-0-2-2-|-3-3-3-3-3-3-3-3-|-5-5-5-5-5-5-5-5-|
C|----------------|-------------2-2-|-3-3-3-3-3-3-3-3-|-5-5-5-5-5-5-5-5-|

D|----------------|-----------------|-----------------|-----------------|
A|----------------|-----------------|-----------------|-----------------|
F|2-2-2-2-2-2-2-2-|-2-2-2-2-2-2-----|-----------------|-----------------|
C|2-2-2-2-2-2-2-2-|-2-2-2-2-2-2-2-2-|-3-3-3-3-3-3-3-3-|-x-0-0-0-0-0-0-0-|
G|0-0-0-0-0-0-0-0-|-0-0-0-0-0-0-2-2-|-3-3-3-3-3-3-3-3-|-x-0-0-0-0-0-0-0-|
C|----------------|-------------2-2-|-3-3-3-3-3-3-3-3-|-x-0-0-0-0-0-0-0-|

D|----------------|\
A|----------------| \
F|2---------------|  \ Let ring
C|2---------------|  /
G|0---------------| /
C|----------------|/


   Verse 2

D|----------------|-----------------|-----------------|-----------------|
A|----------------|-----------------|-----------------|-----------------|
F|2-2-------------|-----------------|-2-2-------------|-----------------| 2X
C|2-2-------------|-3-3----0-0-0----|-2-2-------------|-3-3----0-0-2----|
G|0-0-------------|-3-3----0-0-0----|-0-0-------------|-3-3----0-0-2----|
C|----------------|-3-3----0-0-0----|-----------------|-3-3----0-0-2----|


  * *               	              * *		      ***  ***
D|----------------|-----------------|-----------------|-----------------|
A|----------------|-----------------|-----------------|-----------------|
F|2-2-2-----------|-----------------|-2-2-2-----------|-----------------| 2X
C|2-2-2---3-3-----|-0-0------2-2--2-|-2-2-2---3-3-----|-0-0---222--222--|
G|0-0-0---3-3-----|-0-0------2-2--2-|-0-0-0---3-3-----|-0-0---222--222--|
C|--------3-3-----|-0-0------2-2--2-|---------3-3-----|-0-0---222--222--|


   Pre-chorus



   Chorus

D|----------------|-----------------|-----------------|-----------------|
A|----------------|-----------------|-----------------|-----------------|
F|2-2-2-2-2-2-2-2-|-2-2-2-2-2-2-----|-----------------|-----------------|
C|2-2-2-2-2-2-2-2-|-2-2-2-2-2-2-2-2-|-3-3-3-3-3-3-3-3-|-5-5-5-5-5-5-5-5-|
G|0-0-0-0-0-0-0-0-|-0-0-0-0-0-0-2-2-|-3-3-3-3-3-3-3-3-|-5-5-5-5-5-5-5-5-|
C|----------------|-------------2-2-|-3-3-3-3-3-3-3-3-|-5-5-5-5-5-5-5-5-|

D|----------------|-----------------|-----------------|-----------------|
A|----------------|-----------------|-----------------|-----------------|
F|2-2-2-2-2-2-2-2-|-2-2-2-2-2-2-----|-----------------|-----------------|
C|2-2-2-2-2-2-2-2-|-2-2-2-2-2-2-2-2-|-3-3-3-3-3-3-3-3-|-x-0-0-0-0-0-0-0-|
G|0-0-0-0-0-0-0-0-|-0-0-0-0-0-0-2-2-|-3-3-3-3-3-3-3-3-|-x-0-0-0-0-0-0-0-|
C|----------------|-------------2-2-|-3-3-3-3-3-3-3-3-|-x-0-0-0-0-0-0-0-|


   Breakdown


D|----------------|-----------------|-----------------|-----------------|
A|----------------|-----------------|-----------------|-----------------|
F|2-2-x-2-2-2-2-2-|-----------------|-2-2-x-2-x-2-2-2-|-----------------| 2X
C|2-2-x-2-2-2-2-2-|-5-5-x-5-3-3-3-3-|-2-2-x-2-x-2-2-2-|-5-5-x-5-3-3-3-3-|
G|0-0-x-0-0-0-0-0-|-5-5-x-5-3-3-3-3-|-0-0-x-0-x-0-0-0-|-5-5-x-5-3-3-3-3-|
C|----------------|-5-5-x-5-3-3-3-3-|-----------------|-5-5-x-5-3-3-3-3-|

D|----------------|\
A|----------------| \
F|2---------------|  \ Let ring
C|2---------------|  /
G|0---------------| /
C|----------------|/


   Chorus 2

D|----------------|-----------------|-----------------|-----------------|
A|----------------|-----------------|-----------------|-----------------|
F|5-5-5-5-5-5-5-5-|-5-5-5-5-5-5-----|-----------------|-----------------|
C|5-5-5-5-5-5-5-5-|-5-5-5-5-5-5-5-5-|-6-6-6-6-6-6-6-6-|-8-8-8-8-8-8-8-8-|
G|3-3-3-3-3-3-3-3-|-3-3-3-3-3-3-5-5-|-6-6-6-6-6-6-6-6-|-8-8-8-8-8-8-8-8-|
C|----------------|-------------5-5-|-6-6-6-6-6-6-6-6-|-8-8-8-8-8-8-8-8-|
									   2X
D|----------------|-----------------|-----------------|-----------------|
A|----------------|-----------------|-----------------|-----------------|
F|5-5-5-5-5-5-5-5-|-5-5-5-5-5-5-----|-----------------|-----------------|
C|5-5-5-5-5-5-5-5-|-5-5-5-5-5-5-5-5-|-6-6-6-6-6-6-6-6-|-x-3-3-3-3-3-3-3-|
G|3-3-3-3-3-3-3-3-|-3-3-3-3-3-3-5-5-|-6-6-6-6-6-6-6-6-|-x-3-3-3-3-3-3-3-|
C|----------------|-------------5-5-|-6-6-6-6-6-6-6-6-|-x-3-3-3-3-3-3-3-|

D|----------------|\
A|----------------| \
F|5---------------|  \ Let ring
C|5---------------|  /
G|3---------------| /
C|----------------|/

 The end

Hope you like it, and enjoy!
Tap to rate this tab
# A B C D E F G H I J K L M N O P Q R S T U V W X Y Z