Song name
# A B C D E F G H I J K L M N O P Q R S T U V W X Y Z

Eluveitie - Inis Mona tab

Ok, I figured out this song by ear, so all of it might not be accurate. So don't take 
I put so litteraly, but I'm pretty sure at least 95% of it is right.

E|-----------------------------------------------------------|
B|-----------------------------------------------------------|
G|--7--7---5-5--5---3--3---2-2--2----------------------------|
D|--7--7---5-5--5---3--3---2-2--2---5------------------------|
A|--5--5---3-3--3---1--1---0-0--0---3--7---------------------|
E|--5--5---3-3--3---1--1---0-0--0------5---------------------|

|------------------------------------------------------------|
|------------------------------------------------------------|
|--7--7---5-5--5---3---5---7---------------------------------|
|--7--7---5-5--5---3---5---7---------------------------------|
|--5--5---3-3--3---1---3---5---------------------------------|
|--5--5---3-3--3---1---3---5---------------------------------|

|-----------------------------------------------------------|
|-----------------------------------------------------------|
|--7--7---5-5--5---3--3---2-2--2----------------------------|
|--7--7---5-5--5---3--3---2-2--2---5------------------------|
|--5--5---3-3--3---1--1---0-0--0---3--7---------------------|
|--5--5---3-3--3---1--1---0-0--0------5---------------------|

|------------------------------------------------------------|
|------------------------------------------------------------|
|--7--7---5-5--5---3---5---7----3--------7-------------------|
|--7--7---5-5--5---3---5---7----3--------7-------------------|
|--5--5---3-3--3---1---3---5----1--------5-------------------|
|--5--5---3-3--3---1---3---5----1--------5-------------------|

          Where the veil came crumbling down
          There it all began,
          The germination
|------------------------------------------------------------|
|------------------------------------------------------------|
|---3--3--3--3---7--7---5---3--3---3---5--7--7---------------|
|---3--3--3--3---7--7---5---3--3---3---5--7--7---------------|
|---1--1--1--1---5--5---3---1--1---1---3--5--5---------------|
|---1--1--1--1---5--5---3---1--1---1---3--5--5---------------|


                Unclosing an enthralled door
|------------------------------------------------------------|
|------------------------------------------------------------|
|---10---5---7----5--3----5---3------------------------------|
|---10---5---7----5--3----5---3------------------------------|   X2
|---8----3---5----3--1----3---1------------------------------|
|---8----3---5----3--1----3---1------------------------------|


                 I close my eyes, Inis Mona
|-----------------------------------------------------------|
|-----------------------------------------------------------|
|--7--7---5-5--5---3--3---2-2--2----------------------------|
|--7--7---5-5--5---3--3---2-2--2---5------------------------|
|--5--5---3-3--3---1--1---0-0--0---3--7---------------------|
|--5--5---3-3--3---1--1---0-0--0------5---------------------|

|------------------------------------------------------------|
|------------------------------------------------------------|
|--7--7---5-5--5---3---5---7---------------------------------|
|--7--7---5-5--5---3---5---7---------------------------------|
|--5--5---3-3--3---1---3---5---------------------------------|
|--5--5---3-3--3---1---3---5---------------------------------|

              20 years I have walked your barrows
|------------------------------------------------------------|
|------------------------------------------------------------|
|---7--7--7--7--7--7--7--7--7--7--7--7---3--3--3--3----------|
|---7--7--7--7--7--7--7--7--7--7--7--7---3--3--3--3----------|
|---5--5--5--5--5--5--5--5--5--5--5--5---1--1--1--1----------|
|---5--5--5--5--5--5--5--5--5--5--5--5---1--1--1--1----------|

                  There it all was sown

|------------------------------------------------|
|------------------------------------------------|
|----7--7---5---3--3---3---5--7--7---------------|
|----7--7---5---3--3---3---5--7--7---------------|
|----5--5---3---1--1---1---3--5--5---------------|
|----5--5---3---1--1---1---3--5--5---------------|


      Heres were the flute solo almost comes in
    Guitar 1
|---------------------------------------------|
|---------------------------------------------|
|---10-10--9-10--9-10--9-10-10--9-------------|
|---10-10-10-10-10-10-10-10-10-10-------------|
|---------------------------------------------|
|---------------------------------------------|


|---------------------------------------------|
|---------------------------------------------|
|---10-10--9-10--9-10-12-10-10--9-------------|
|---10-10-10-10-10-10-10-10-10-10-------------|
|---------------------------------------------|
|---------------------------------------------|


|---------------------------------------------|
|---------------------------------------------|
|---10-10--9-10--9-10-12-10-10--9-------------|
|---10-10-10-10-10-10-10-10-10-10-------------|
|---------------------------------------------|
|---------------------------------------------|

|---------------------------------------------|
|---------------------------------------------|
|---10-10--9-10--9-10-12-10-10--9-------------|
|---10-10-10-10-10-10-10-10-10-10-------------|
|---------------------------------------------|
|---------------------------------------------|

|---------------------------------------------|
|---------------------------------------------|
|---10-10--9-10--9-10--9-10-10--9-------------|
|---10-10-10-10-10-10-10-10-10-10-------------|
|---------------------------------------------|
|---------------------------------------------|

     Guitar 2
|-----------------------------------------------------------------|
|-----------------------------------------------------------------|
|--3-3-3-3-3-3-3-3-3-3-5-5-5-5-5-5-5-5-5-5--7-7-7-7-7-7-7-7-7-7---|
|--3-3-3-3-3-3-3-3-3-3-5-5-5-5-5-3-5-5-5-5--7-7-7-7-7-7-7-7-7-7---|
|--1-1-1-1-1-1-1-1-1-1-3-3-3-3-3-3-3-3-3-3--5-5-5-5-5-5-5-5-5-5---|
|--1-1-1-1-1-1-1-1-1-1-3-3-3-3-3-3-3-3-3-3--5-5-5-5-5-5-5-5-5-5---|

|---------------------------------------|
|---------------------------------------|
|--10-10-10-10-10-10-10-10-3-3----------|
|--10-10-10-10-10-10-10-10-3-3----------|
|--8--8--8--8--8--8--8--8--1-1----------|
|--8--8--8--8--8--8--8--8--1-1----------|

         This is toward the end of the song were the song changes keys
|-----------------------------------------------------------------|
|----9--9--8-8-9-8---9--9--9--8-8-9-8---9--9--8-8-9-8-13-11--9----|
|---10-10--8-8-8-8--10-10-10--8-8-8-8--10-10--8-8-8-8-10-10--10---|
|-----------------------------------------------------------------|
|-----------------------------------------------------------------|
|-----------------------------------------------------------------|
Tap to rate this tab
 
# A B C D E F G H I J K L M N O P Q R S T U V W X Y Z