Song name
# A B C D E F G H I J K L M N O P Q R S T U V W X Y Z

Eluveitie - Slanias Song tab

Band: ELUVEITIE
Song: Slania´s song
Tabbed by: Timotej Kasa

This is only the main mellody in this song and sometimes I tabbed something which is not 
with guitar, but I hope u like it.


I dont know the right timing, so you should hear the song as first, it is not hard to play.

e--------------------------------------|
B----------------------------6---------|
G---5-8-7-8-5-8-7----5-8-7-8---8-7-8---|
D-----------------8--------------------|  2x
A--------------------------------------|
E--------------------------------------|


e-------------8-8-5-6-5---------------------------------|
B---------6-8-----------8-6-----------6---6-8-6---------|
G--5-5-7-8-------------------8-8-5-7-8---8-------8-7-8--|
D-------------------------------------------------------|
A-------------------------------------------------------|
E-------------------------------------------------------|


e-------------8-8-5-6-5---------------------------|
B---------6-8-----------8-6-----------------------|
G--5-5-7-8-------------------8-8-5-7-5---7-5-3-5--|
D--------------------------------------8----------|
A-------------------------------------------------|
E-------------------------------------------------|


e-------------------------------------------6------------------|
B------------8-9-8-6-----6--------------------9-8-9-8-6-8-8-9--|
G--5-5-7-8-5---------8-8---8-7-8--5-5-7-8-5--------------------|
D--------------------------------------------------------------|
A--------------------------------------------------------------|
E--------------------------------------------------------------|


e-------------------------------------------------------------|
B------------8-9-8-6------------------------------------------|
G--5-5-7-8-5---------8-8-7---5-5-5-5---------------------8-7--|
D--------------------------8---------8-8-8-8-6-6-6-6-6-6------|
A-------------------------------------------------------------|
E-------------------------------------------------------------|


e---------------------------------------------------------------|
B----------------------------------------------------6-6-6------|
G--5-5--5--8-7-5---------8---8-7-7--7--8-7-5---8-7-8-------8-7--|
D----------------6-6--6----6-----------------6------------------|
A---------------------------------------------------------------|
E---------------------------------------------------------------|


e-------------------------------------------6------------------|
B------------8-9-8-6-----6--------------------9-8-9-8-6-8-8-9--|
G--5-5-7-8-5---------8-8---8-7-8--5-5-7-8-5--------------------|
D--------------------------------------------------------------|
A--------------------------------------------------------------|
E--------------------------------------------------------------|


e-------------------------------------------6----------------|
B------------8-9-8-6-----6--------------------9-8-9-8-6------|
G--5-5-7-8-5---------8-8---8-7-8--5-5-7-8-5-------------8-7--|
D------------------------------------------------------------|
A------------------------------------------------------------|
E------------------------------------------------------------|


e---------------------------------------------------------------|
B----------------------------------------------------6-6-6------|
G--5-5--5--8-7-5---------8---8-7-7--7--8-7-5---8-7-8-------8-7--| 2x
D----------------6-6--6----6-----------------6------------------|
A---------------------------------------------------------------|
E---------------------------------------------------------------|


e------------------------------------------------|
B------------------------------------------------|
G--5---5-5-8-8--8-8-7------5-5-8-8-8-7-8-7-8-7---|
D----8----------------8--8-----------------------|
A------------------------------------------------|
E------------------------------------------------|


e-------------------------------------------6------------------|
B------------8-9-8-6-----6--------------------9-8-9-8-6-8-8-9--|
G--5-5-7-8-5---------8-8---8-7-8--5-5-7-8-5--------------------|
D--------------------------------------------------------------|
A--------------------------------------------------------------|
E--------------------------------------------------------------|


e-------------------------------------------6----------------|
B------------8-9-8-6-----6--------------------9-8-9-8-6------|
G--5-5-7-8-5---------8-8---8-7-8--5-5-7-8-5-------------8-7--|
D------------------------------------------------------------|
A------------------------------------------------------------|
E------------------------------------------------------------|


e---------------------------------------------------------------|
B----------------------------------------------------6-6-6------|
G--5-5--5--8-7-5---------8---8-7-7--7--8-7-5---8-7-8-------8-7--| 2x
D----------------6-6--6----6-----------------6------------------|
A---------------------------------------------------------------|
E---------------------------------------------------------------|


e------------------------------------------------|
B------------------------------------------------|
G-5-8-8-7-8--5-8-8-7-10-8-7--8-8-7-8--5-8-8-7-3--|
D------------------------------------------------|
A------------------------------------------------|
E------------------------------------------------|


| /   slide up
| \   slide down
| h   hammer-on
| p   pull-off
| ~   vibrato
| +   harmonic
| x   Mute note
| b   Bend
| pb  Pre-bend
| br  Bend release
| pbr Pre-bend release
| brb Bend release bend
Tap to rate this tab
 
# A B C D E F G H I J K L M N O P Q R S T U V W X Y Z