Song name
# A B C D E F G H I J K L M N O P Q R S T U V W X Y Z

Eluveitie - Thousandfold tab

Title: Thousandfold
Artist: Eluveitie
Album: Everything Remains As It Never Was
Author: Chrigel Glanzmann

Okay this tab was requested, so, as I'm going to upload the gp file, I decided to upload 
the guitar tab here too ! I just used the GP's transcription to ASCII, but it should be ok.

|:      : Open Repeat
:|      : Close Repeat
_1_____ : Alternative Repeat


INTRO

E|:---------------------------------|-------------------|
B|:---------------------------------|-------------------|
G|:---------------------------------|-------------------|
D|:-5---5---5---5---5---5---5---5---|-5---5---5---5---5-|
A|:-5---5---5---5---5---5---5---5---|-5---5---5---5---5-|
E|:-3---3---3---3---3---3---3---3---|-3---3---3---3---3-|
B|:---------------------------------|-------------------|

--------------|---------------------------------|
--------------|---------------------------------|
--------------|---------------------------------|
--5-----------|---------------------------------|
--5---5---5---|-6---6---6---6---6---6---6---6---|
--3---5---5---|-6---6---6---6---6---6---6---6---|
------3---3---|-4---4---4---4---4---4---4---4---|

 _1_________________________________ _2_______________________________
E|---------------------------------:|---------------------------------|--------|
B|---------------------------------:|---------------------------------|--------|
G|---------------------------------:|---------------------------------|--------|
D|-3---3---3---3---3---3---3---3---:|---------------------------------|-5------|
A|-3---3---3---3---3---3---3---3---:|-X---3---3---3---3---3---3---3---|-5------|
E|-1---1---1---1---1---1---1---1---:|-X---3---3---3---3---3---3---3---|-3------|
B|---------------------------------:|-X---1---1---1---1---1---1---1---|--------|

VERSE 1st

E|---------------------------------|---------------------------------|
B|---------------------------------|---------------------------------|
G|---------------------------------|---------------------------------|
D|-5---5---------------------------|---------------------------------|
A|-5---5---------------------------|-6---6-----------3---3---3---3---|
E|-3---3---------------------------|-6---6-----------3---3---3---3---|
B|---------------------------------|-4---4-----------1---1---1---1---|


E|---------------------------------|---------------------------------|
B|---------------------------------|---------------------------------|
G|---------------------------------|---------------------------------|
D|-5---5---------------------------|---------------------------------|
A|-5---5---------------------------|-6---6-----------3---3---5---5---|
E|-3---3---------------------------|-6---6-----------3---3---5---5---|
B|---------------------------------|-4---4-----------1---1---3---3---|


E|---------------------------------|---------------|
B|---------------------------------|---------------|
G|---------------------------------|---------------|
D|-5---5---5-----------------------|---------------|
A|-5---5---5---5---6---6-----------|-3---3---------|
E|-3---3---3---5---6---6-----------|-3---3---------|
B|-------------3---4---4-----------|-1---1---------|

------------------|---------------------------------|
------------------|---------------------------------|
------------------|---------------------------------|
------------------|-5---5---5-----------------------|
--5---5-------5---|-5---5---5---5---6---6-----------|
--5---5-------5---|-3---3---3---5---6---6-----------|
--3---3-------3---|-------------3---4---4-----------|



E|-----------------------------------------|
B|-----------------------------------------|
G|-----------------------------------------|
D|-----------------------------------------|
A|-3---3-----------5--5--5-----5--5--5--5--|
E|-3---3-----------5--5--5-----5--5--5--5--|
B|-1---1-----------3--3--3-----3--3--3--3--|


Pre-chorus
E|-------------|--------------|
B|-------------|--------------|
G|-------------|--------------|
D|-------------|--------------|
A|-6-----------|-3------------|
E|-6-----------|-3------------|
B|-4-----------|-1------------|


The chorus chords are the same as the intro chords.


Pre-2d verse
E|---------------------------------|
B|---------------------------------|
G|---------------------------------|
D|---------------------------------|
A|---------------------------------|
E|-X---3---3---3---3---3---3---3---|
B|-X---1---1---1---1---1---1---1---|


Then play the verse, and the pre-chorus.


2d Chorus, only the last measure changes.

E|:---------------------------------|----------------|
B|:---------------------------------|----------------|
G|:---------------------------------|----------------|
D|:-5---5---5---5---5---5---5---5---|-5---5---5---5--|
A|:-5---5---5---5---5---5---5---5---|-5---5---5---5--|
E|:-3---3---3---3---3---3---3---3---|-3---3---3---3--|
B|:---------------------------------|----------------|

-----------------|---------------------------------|
-----------------|---------------------------------|
-----------------|---------------------------------|
-5---5-----------|---------------------------------|
-5---5---5---5---|-6---6---6---6---6---6---6---6---|
-3---3---5---5---|-6---6---6---6---6---6---6---6---|
---------3---3---|-4---4---4---4---4---4---4---4---|


 __1________________________________ _2_____________________________________
E|---------------------------------:|----------------------------------------|
B|---------------------------------:|----------------------------------------|
G|---------------------------------:|----------------------------------------|
D|-3---3---3---3---3---3---3---3---:|----------------------------------------|
A|-3---3---3---3---3---3---3---3---:|-X---10---10---10---10---10---10---10---|
E|-1---1---1---1---1---1---1---1---:|-X---10---10---10---10---10---10---10---|
B|---------------------------------:|-X---8----8----8----8----8----8----8----|


BRIDGE : Flute solo



E|:---------------------------------|----------------|
B|:---------------------------------|----------------|
G|:---------------------------------|----------------|
D|:-5---5-------5---5---5---5---5---|-3---3-------3--|
A|:-5---5-------5---5---5---5---5---|-3---3-------3--|
E|:-3---3-------3---3---3---3---3---|-1---1-------1--|
B|:---------------------------------|----------------|

-----------------|---------------------------------|
-----------------|---------------------------------|
-----------------|---------------------------------|
-----------------|-5---5-------5-------5---5---5---|
-6---6---6---5---|-5---5-------5-------5---5---5---|
-6---6---6---5---|-3---3-------3-------3---3---3---|
-4---4---4---3---|---------------------------------|



E|---------------------------------:|
B|---------------------------------:|
G|---------------------------------:|
D|-3---3-------3-------------------:|
A|-3---3-------3---6---6---6---5---:|
E|-1---1-------1---6---6---6---5---:|
B|-----------------4---4---4---3---:|


BRIDGE Mandolin part, let the chord ring.

E|-------------|
B|-------------|
G|-------------|
D|-5-----------|
A|-5-----------|
E|-3-----------|
B|-------------|

3rd Chorus :

E|:---------------------------------|----------------|
B|:---------------------------------|----------------|
G|:---------------------------------|----------------|
D|:-8---8---8---8---8---8---8---8---|-8---8---8---8--|
A|:-8---8---8---8---8---8---8---8---|-8---8---8---8--|
E|:-6---6---6---6---6---6---6---6---|-6---6---6---6--|
B|:---------------------------------|----------------|

-----------------|---------------------------------|
-----------------|---------------------------------|
-----------------|---------------------------------|
-8---8-----------|---------------------------------|
-8---8---8---8---|-9---9---9---9---9---9---9---9---|
-6---6---8---8---|-9---9---9---9---9---9---9---9---|
---------6---6---|-7---7---7---7---7---7---7---7---|

 _1_________________________________ _2_______________________________
E|---------------------------------:|---------------------------------|-----------|
B|---------------------------------:|---------------------------------|-----------|
G|---------------------------------:|---------------------------------|-----------|
D|-6---6---6---6---6---6---6---6---:|---------------------------------|-8---------|
A|-6---6---6---6---6---6---6---6---:|-x---6---6---6---6---6---6---6---|-8---------|
E|-4---4---4---4---4---4---4---4---:|-x---6---6---6---6---6---6---6---|-6---------|
B|---------------------------------:|-x---4---4---4---4---4---4---4---|-----------|


The end.
Tap to rate this tab
# A B C D E F G H I J K L M N O P Q R S T U V W X Y Z