Guitaretab - guitar tabs
Song name
# A B C D E F G H I J K L M N O P Q R S T U V W X Y Z

Eluveitie - Inis Mona tab

Hey Guys, this is my first tab, I feel this is accurate, hope it helps!

Please note the solo is played an octave higher in the original,
to compensate for this during the solo play 9th fret instead of the 2nd,
10th fret instead of 3rd and 12th fret instead of 5th.

Intro / Chorus:

     D      C      B      A      G   F   D      C      B   C   D
E ------------------------------------------------------------------|
B ------------------------------------------------------------------|
G -----------------3------2-----------------------------------------|
D -----------------3------2------5---3------------------------------|
A ---5------3------1------0------5---3---5------3------1---3---5----|
E ---5------3------1---------------------5------3------1---3---5----|

Verse:

    B    B   B   D   D   C   B   B   B   D   D   C   B   B   B
E ------------------------------------------------------------------|
B ------------------------------------------------------------------|
G ------------------------------------------------------------------|
D ------------------------------------------------------------------|
A ---1---1---1---5---5---3---1---1---1---5---5---3---1---1---1------|
E ---1---1---1---5---5---3---1---1---1---5---5---3---1---1---1------|  X3

Bridge:
[ Tab from: http://www.guitaretab.com/e/eluveitie/311474.html ]
     B   C   D   B   C   D
E ------------------------------------------------------------------|
B ------------------------------------------------------------------|
G ------------------------------------------------------------------|
D ------------------------------------------------------------------|
A ---1---3---5---1---3---1------------------------------------------|
E ---1---3---5---1---3---1------------------------------------------|  X2

Solo:

E ------------------------------------------------------------------|
B ------------------------------------------------------------------|
G ------------------------------------------------------------------|
D ------------------------------------------------------------------|
A ------------------------------------------------------------------|
E ---3---2-3-2-3-2-3-3-2-3---2-3-2-3-5-3-3-2------------------------|  X2

Rhythm For Solo:

E ------------------------------------------------------------------|
B ------------------------------------------------------------------|
G ------------------------------------------------------------------|
D -------------------------------------------8----------------------|
A ---1---------3---------5---------8---------8----------------------|
E ---1---------3---------5---------8---------6----------------------|
Related for Inis Mona tab
Inis Mona chords by Eluveitie