Song name
# A B C D E F G H I J K L M N O P Q R S T U V W X Y Z

Eluveitie - Inis Mona tab

Inis Mona
Eluvitite
Album:Slania
Tabbed By-Tanvir ahmed(tanvirahmed7170@gmail.com)

Heavy Metal Song.....

Intro And Chorous
(You Can Use The Chords As 2nd Guitar)

Intro And Chorus Starts At: 00:01-00:20---01:02-01:20----02:01-02:18---03:21-3:56-|
E---------------------------------------------------------------------------------|
B---------------------------------------------------------------------------------|
G---------------------------------------------------------------------------------|
D-9-9--9-9--7-7-7-7--7-7--5-5-5-5--7-7--7-7-7-7-----------------------------------|
A-9-9--9-9--7-7-7-7--7-7--5-5-5-5--7-7--7-7-7-7-----------------------------------|
E-7-7--7-7--5-5-5-5--9-9--3-3-3-3--9-9--5-5-5-5-----------------------------------|

E------------------|
B------------------|
G------------------|
D-3-3--4-4--5-5----|
A-3-3--4-4--5-5----|
E-1-1--2-2--3-3----|

Intro And Chorus Chords-A#-G#----A#-F#-----A#-G#-----F#-G#-A#

Verse Starts At: 00:21-00:43---01:21-1:43
Verse-
E---------------------------------------------------|
B---------------------------------------------------|
G---------------------------------------------------|
D-9-9-9-9--5-5--7-7----9-9-9-9--5---7-7-7-7-7-------|
A-9-9-9-9--5-5--7-7----9-9-9-9--5---7-7-7-7-7-------|
E-7-7-7-7--3-3--5-5----7-7-7-7--3---5-5-5-5-5-------|

Verse Chords-F--G-A---F-G-A#

Pre Chorous Starts At: 00:44-01:01---01:44-02:00---02:55-03:11
Pre Chorous-
E--------------------------------------------------|
B--------------------------------------------------|
G--------------------------------------------------|
D-5---7---9----5---7---9---9---9-------------------|
A-5---7---9----5---7---9---9---9-------------------|
E-3---5---7----3---5---7---7---7-------------------|

Pre Chorus Chords-F-G-A---F#-G#-A#

Bridge Starts At: 02:19-02:54
Bridge-
E---------------------------------------------------|
B---------------------------------------------------|
G---------------------------------------------------|
D-7-7-7--5-5-5-5--7-7-7--7-7-7-7--3-3-4-4-5-5-------|
A-7-7-7--5-5-5-5--7-7-7--7-7-7-7--3-3-4-4-5-5-------|
E-5-5-5--3-3-3-3--5-5-5--9-9-9-9--1-1-2-2-3-3-------|

Bridge Chords-F-A----F#-A#

This Guitar COme After Pre Chorous 03-12-03:20
Chords-Am-F-C-G


I Watched The Live Video And Tried My Best To Tab It..Good Luck
Tap to rate this tab
# A B C D E F G H I J K L M N O P Q R S T U V W X Y Z