Song name
# A B C D E F G H I J K L M N O P Q R S T U V W X Y Z

Elvenking - Lost Hill Of Memories tab

bradleishman14@live.com.au here and just the 
intro to this awesome song

Riff 1
E----------------------|
B----------------------|
G----------------------|
D--00--00--00---00--00-|
A--00--00--00---00--00-|x2
D--00--00--00---00--00-|


Riff 2
E---------------------------------------------|
B---------------------------------------------|
G---------------------------------------------|
D--00-00-00-00-1p0-3--00-00-8-7-5-7-5-3-5-3-0-|
A--00-00-00-00-1p0-3--00-00-------------------|x2
D--00-00-00-00-1p0-3--00-00-------------------|


Riff 3
E-----------------------------------------------|
B-----------------------------------------------|
G-----------------------------------------------|
D--8-000000-7-000000-5-000000-7000000-00-10p8p7-|
A-----------------------------------------------|
D-----------------------------------------------|


E-----------------------------------------------|
B-----------------------------------------------|
G-----------------------------------------------|
D--8-000000-7-000000-5-000000-7-000000-00-5p3-0-|
A-----------------------------------------------|x3
D-----------------------------------------------|


Riff 4
E-----------------------------------------------|
B-----------------------------------------------|
G-----------------------------------------------|
D--8-000000-7-000000-5-000000-7000000-00-10p8p7-|
A-----------------------------------------------|
D-----------------------------------------------|


E----------------------------------------------------|
B----------------------------------------------------|
G----------------------------------------------------|
D--8-000000-7-000000-5-000000-7-000000-00-5p3-0--2b~-|
A----------------------------------------------------|
D----------------------------------------------------|

Will have rest of song soon been really too busy to 
stop and tab songs lately
Tap to rate this tab
# A B C D E F G H I J K L M N O P Q R S T U V W X Y Z