Song name
# A B C D E F G H I J K L M N O P Q R S T U V W X Y Z

Elvis Costello - Pump It Up tab

INTRO

bass riff

G|---------------------------------------|
D|---------------------------------------|
A|-----6---7-6-7-0-1---------------------|     3x
E|---2----------------2-2-0-2--0-2-0-----|

On 4x

G|---------------------------------------|
D|---------------------------------------|
A|-----6---7-6-7-0-1---------------------|
E|---2----------------2-2-3-3-4-4-5-5----|

Guitar part during intro

E--5b~~~~r5~~~~--------------------------|
B--6b~~~~r6~~~~-------------12~~~~-------|
G---------------------------12~~~~-------|
D----------------------------------------|
A----------------------------------------|
E----------------------------------------|

e|---------------------------------------|
B|---------------------------------------|
G|---------------------------------------|
D|---------------------------------------|
A|---------------------------------------|
E|---2-2-3-3-4-4-5-5---------------------|


e|--------------     --------------------|
B|--------------     --------------------|
G|--------------     --------------------|
D|-3-3--3-4----- OR  --------------------|      It's your choice
A|-1-1--1-2-0---     ---9-9--9-8-7-------|
E|--------------     ---7-7--7-6-5-------|

Verse

There really is only one chord in the verse. Listen to the song for rythm.

e|---2----|
B|---x----|
G|---2----|
D|---1----|
A|---2----|
E|---0----|

Chorus

e|-------------------------------------------|
B|--0---0---0--------------------------------|
G|--1---1---1--------------------------------|
D|--0---0---0--------------------------------|
A|--2---2---2---0--0-0-0-0-0-0-0-0~~~--------|
E|--0---0---0--------------------------------|

Outro

e|--------------     --------------------|
B|--------------     --------------------|
G|--------------     --------------------|
D|-3-3--3-4----- OR  --------------------|
A|-1-1--1-2-0---     ---9-9--9-8-7-------|
E|--------------     ---7-7--7-6-5-------|
Tap to rate this tab
# A B C D E F G H I J K L M N O P Q R S T U V W X Y Z