Song name
# A B C D E F G H I J K L M N O P Q R S T U V W X Y Z

Elvis Costello - Almost Blue tab

Almost Blue - Elvis Costello :: ggbonner
Tabbed by: Gregg Bonner (gbonner@umich.edu) 10 July 2010
Note: This mirrors a MIDI file you can find on the internet.
Note: Measures 5 and 36 contain some 16th notes (asterisks supra).



|----------------|5-----5-4-----4-|3-----3-0-------|0-------5-8---10|
|-----LEAD-------|5-----5-5-----5-|5-----5-7-------|5-----6---------|
|------IN--------|5-----5-5-----5-|5-----5-5-------|7---7-------7---|
|----MEASURE-----|----------------|--------7-------|7---------------|
|----------------|0-------0-------|0-------0-------|8---------------|
|----------------|----------------|----------------|----------------|

             ****
|12------------0-|----0---0-------|--------1-------|----0---0-------|
|--13-9--------1-|1---1---1-------|1-------3---3---|----1---1-------|
|-------9-----222|2---2---2-------|2-------2---1---|2---2---2-------|
|--------10--2---|2---------------|------------2---|2---------------|
|----------11----|0---------------|--------2-------|0---------------|
|----------------|--------4-----4-|3-----------0---|--------4-----4-|


|--------1-------|----------------|----0-----------|--------7-------|
|1-------3---3---|--------1-------|0-------3-------|5-------5-------|
|2-------2---1---|0-------2-------|1-------2-------|5-------5-------|
|------------2---|2-------3---3---|2-------3-----0-|7---7---7---7---|
|--------2-------|3---------------|--------5-------|--7-------7-----|
|3-----------0---|----------------|----------------|----------------|


|2-------2-------|----------------|5---------------|0---------------|
|4-------4-------|5---------------|5-------5-------|3---3---1-------|
|2---2---2---2---|5-----5-7-------|6-------6-------|5-------2-------|
|--2-------2-----|--------8-----8-|7-----7-5-------|7-------3-------|
|----------------|----------------|----------------|----------------|
|----------------|----------------|----------------|----------------|


|0---------------|0-------2-------|0-------0-------|1---------------|
|0-----0-1-------|1-------4-------|1-------1-------|1-------0-0-----|
|2-------1-------|2-----2-4-------|2-------2-------|----------------|
|3-------2---2---|----------------|------2---------|3-3-------------|
|----------------|----------------|----------------|----------------|
|----------------|----------------|----------------|----------------|


|0-------0-------|1-------1-------|----0---0-------|----0---0-------|
|1---1---2-2-----|3-3-----3-------|0-0---0-0-0-----|1---1---1-------|
|--------3-------|2-------4-4-----|--------1-------|2---2---2-------|
|--------5-------|----------------|2-------2---2---|2---------------|
|----------------|----------------|----------------|----------------|
|----------------|----------------|----------------|--------4-----4-|


|----------------|----0---0-------|----------------|----------------|
|1-------6-------|----1---1-------|1-------6-------|--------1-------|
|2-------7---7---|2---2---2-------|2-------7---7---|0-------2-------|
|--------9---6---|2---------------|--------9---6---|2-------3---3---|
|--------7---7---|----------------|--------7---7---|3---------------|
|3---------------|--------4-----4-|3---------------|----------------|


|----0-----------|--------7-------|2-------2-------|----------------|
|0-------3-------|5-------5-------|4-------4-------|5---------------|
|1-------2-------|5-------5-------|2---2---2---2---|5-----5-7-------|
|2-------3-----0-|7---7---7---7---|--2-------2-----|--------8-----8-|
|--------5-------|--7-------7-----|----------------|----------------|
|----------------|----------------|----------------|----------------|
      
                                                            ****     
|5---------------|0---------------|0---------------|0---------------|
|5-------5-------|3---3---1-------|0-----0-1-------|1---------------|
|6-------6-------|5-------2-------|2-------1-------|2-----------2---|
|7-----7-5-------|7-------3-------|3-------2---2---|----------14----|
|----------------|----------------|----------------|--------23------|
|----------------|----------------|----------------|----------------|


|1---------------|--------0-------|5---------------|----------------|
|3---------------|--------1-------|----------------|-----LEAD-------|
|4---------------|--------2-------|----------------|-----OUT--------|
|----------------|----------------|----------------|----MEASURE-----|
|----------------|----------------|----------------|----------------|
|----------------|----------------|----------------|----------------|
Tap to rate this tab
# A B C D E F G H I J K L M N O P Q R S T U V W X Y Z