Song name
# A B C D E F G H I J K L M N O P Q R S T U V W X Y Z

Elvis Costello - Still chords

Highlighted       Show chord diagrams
 C D/C [ch]Bb/C[/ch] G/C x2

  C    D/C [ch]Bb/C[/ch]       G/C
These few lines I'll devote
      C         D/C         [ch]Bb/C[/ch]      Bb  G
To a marvelous girl covered up in my coat
 C   D/C [ch]Bb/C[/ch]         G/C
Pull it  up to your chin
      C          F/C     C          
I'll hold you until the day will begin

  F   Fsus4
Still
 Gm            C                Am        Dm
Lying in the shadows this new flame will cast
Gm          Eb         C        F       Fsus4
Upon everything we've carried from the past
 Gm              C              Am     Dm
You were made of every love and each regret
Am            Dm
Up until the day we met

  E   A       D                E
There are no words that I'm afraid to hear
   Am       Dm Gm     Eb      C
Unless they are “Goodbye, my dear”

  F   Fsus4
Still
Gm            C
I was moving very fast
    Am       Dm
But in one place
 Gm               Eb       C      F        Fsus4
Now you speak my name and set my pulse to race
 Gm                  C              Am      Dm
Sometimes words may tumble out but can't eclipse
     Am                Dm                E     A               
The feeling when you press your fingers to my lips

   D               E
I want to kiss you in a rush
      Am               Dm
And whisper things to make you blush
 Gm               Eb
You say “Darling hush 
 C
Hush
   F  Fsus4   F   Fsus4
“Still,     still”

  Cello arranged for guitar:
    C   D/C  [ch]Bb/C[/ch]     G/C
e||--------------------------||
B||--------------------------||
G||--------------------------||
D||-5---4----3p2-0----0h2----||
A||-----------------3--------||
E||-----------------------3--||

    C          F/C   C         F/C    C
e||-----------------------------------------||
B||-----------------------------------------||
G||-----------------------------------------||
D||-2p0--------0-----2p0--------0-----------||
A||-----3--2h3-----------3--2h3--------3/7--||
E||--------------1----------------1---------||
Tap to rate this tab
# A B C D E F G H I J K L M N O P Q R S T U V W X Y Z