Song name
# A B C D E F G H I J K L M N O P Q R S T U V W X Y Z

Elvis Jackson - What Took You So Long tab

Artist: Elvis Jackson
Album: Against The Gravity
Song: What Took You So Long

Tabbed by: Mark Skoflek, Slovenia (skoflektheguitarist@gmail.com)
Tuning: Standard

e|--12-13-12--------12-13--12-/15---12-13-12--------|
B|-----------13~------------------------------13~---|
G|--------------------------------------------------|
D|--------------------------------------------------|
A|--------------------------------------------------|
E|--------------------------------------------------|

|-----------------------------------------------------------------------|
|-12---13---15---13--12--13--15--13-12-13-15-13---12-13-15-13-12-13-15--|
|-----------------------------------------------------------------------|
|-----------------------------------------------------------------------|
|-----------------------------------------------------------------------|
|-----------------------------------------------------------------------|

|------------------------------------|
|-12-13-15-13-12h13p12----12---------|
|----------------------14----14-12~~-|
|------------------------------------|
|------------------------------------|
|------------------------------------|

|---------------------------------------------------------------|
|-12-13-12h13p12------------------------------------------------|
|----------------14-12------------------------------------------|
|-----------------------15-15--14-14--12-14--12-----------12h14-|
|-----------------------------------------------15--14h15-------|
|---------------------------------------------------------------|

|--15--13--12-----12--13--12--10-12--10--8---|
|--17--15--13-----13--15--13--12-13--12--10--|
|--------------------------------------------|
|--------------------------------------------|
|--------------------------------------------|
|--------------------------------------------|

|-10--12-10-15--13--12-13--15--13--12-13--8---10---12---13---12~~-|
|-12--13-12-17--15--13-15--17--15--13-15--10--12---13---15---13~~-|
|-----------------------------------------------------------------|
|-----------------------------------------------------------------|
|-----------------------------------------------------------------|
|-----------------------------------------------------------------|

Tap to rate this tab
 
# A B C D E F G H I J K L M N O P Q R S T U V W X Y Z