Song name
# A B C D E F G H I J K L M N O P Q R S T U V W X Y Z

Elvis Jackson - Fear Off tab

Hi !

This is an acoustic version of the song! Originaly played by Slovenian Band Elvis 
Jackson ! :D



---00--0000--33--2222----|
---00--1111--33--3333----|
---00--0000--00--2222----|    more than 10x
---22--2222--00--0000----|
---22--3333--22--0000----|
---00--0000--33--0000----|


....


---00000000-000-00-0---00-000-0-0-0---2222222-----|
---00000000-333-11-0---11-333-1-0-1---3333333-----|
---00000000-000-00-0---00-000-0-0-0---2222222-----|   play it twice
---22222222-222-22-2---22-222-2-2-2---0000000-----|
---22222222-222-22-2---33-333-3-3-3---0000000-----|
---00000000-000-00-0---00-000-0-0-0---0000000-----|


and final


----------------------------|
----------------------------|
---99--------66-------------|  play 6x
---99--6666--66--777-999----|
---77--6666--44--777-999----|
-------4444------555-777----|



And then from the top again...


I Hope you will like it  !  ;)


Here is an video on Youtube: http://www.youtube.com/watch?v=MvNzLZnkdKU


Bye !
Tap to rate this tab
# A B C D E F G H I J K L M N O P Q R S T U V W X Y Z