Song name
# A B C D E F G H I J K L M N O P Q R S T U V W X Y Z

Elvis Jackson - Morning tab

Hi !


This acoustic version of the song goes like this...


Intro:

---3---|
---3---|
---4---|  6x
---5---|
---5---|
---3---|


---3-3-3-3-----------------------------|
---3-3-3-3--7-7-7-7--5-5-5-5--7-7-7-7--|
---4-4-4-4--7-7-7-7--5-5-5-5--7-7-7-7--|  few times...
---5-5-5-5--7-7-7-7--5-5-5-5--7-7-7-7--|
---5-5-5-5--5-5-5-5--3-3-3-3--5-5-5-5--|
---3-3-3-3-----------------------------|


-------------------------------------------------------------------------|
---9-8~8--9-8~8--9-8~8--9-11-9-8-11-8~8--9-8~8--9-8~8--9-11-9-8-11-8~8---|
-------------------------------------------------------------------------|
-------------------------------------------------------------------------|
-------------------------------------------------------------------------|
-------------------------------------------------------------------------|


---3-3-3-3-----------------------------|
---3-3-3-3--7-7-7-7--5-5-5-5--7-7-7-7--|
---4-4-4-4--7-7-7-7--5-5-5-5--7-7-7-7--|  few times...
---5-5-5-5--7-7-7-7--5-5-5-5--7-7-7-7--|
---5-5-5-5--5-5-5-5--3-3-3-3--5-5-5-5--|
---3-3-3-3-----------------------------|


.....don't know how to play missing part....


---333333333333-6666-5-4---|
---333333333333-6666-5-4---|
---444444444444-7777-6-5---|  few times
---555555555555-8888-7-6---|
---555555555555-8888-7-6---|
---333333333333-6666-5-4---|


---3-3-3-3-3-3--4-4-4--6-6--4---|
---3-3-3-3-3-3--4-4-4--6-6--4---|
---4-4-4-4-4-4--5-5-5--7-7--5---|  few times
---5-5-5-5-5-5--6-6-6--8-8--6---|
---5-5-5-5-5-5--6-6-6--8-8--6---|
---3-3-3-3-3-3--4-4-4--6-6--4---|



---3-3-3-3-----------------------------|
---3-3-3-3--7-7-7-7--5-5-5-5--7-7-7-7--|
---4-4-4-4--7-7-7-7--5-5-5-5--7-7-7-7--|  few times
---5-5-5-5--7-7-7-7--5-5-5-5--7-7-7-7--|
---5-5-5-5--5-5-5-5--3-3-3-3--5-5-5-5--|
---3-3-3-3-----------------------------|



----3-------------------|
-----3---7----5----7----|
---4------7----5----7---|  few times
---5----7----5----7-----|
---5----5----3----5-----|
---3--------------------|



Don't know the end... :p



I hope you will like it !  Feel free to correct my tab !
Tap to rate this tab
# A B C D E F G H I J K L M N O P Q R S T U V W X Y Z