Song name
# A B C D E F G H I J K L M N O P Q R S T U V W X Y Z

Elvis Perkins - Sleep Sandwich tab

e|--------------------------------------------------------------|
B|----------------------0---------------------------------------|
G|-------------------------2----1-------------------------------|
D|-----2----4----------------------------------2----4-----------|
A|--2----4----------------------------------2-------------------|
E|--------------------------------------------------------------|

e|--------------------------------------------------------------|
B|0-------------------------------------------------------------|
G|---2----1-----------------------------------------------------|
D|--------------------------------------------------------------|
A|--------------------2-----------------------------------------|
E|--------------------------------------------------------------|
Tap to rate this tab
 
# A B C D E F G H I J K L M N O P Q R S T U V W X Y Z