Song name
# A B C D E F G H I J K L M N O P Q R S T U V W X Y Z

Elvis Presley - Love Me Tender tab

SSOOOOOOOOOOOOOOOOOOO EASY TOPLAY I'VE ONLY BEEN PLAYING FOR 2 WEEKS!!!!!

|------------------------------------------|
|------------------------------------------|
|------------------------------------------|
|--------------7-6-5-3-5-6-----------------|
|------------7-----------------------------|
|-0-5-4-5-7--------------------------------|

|------------------------------------------|
|------------------------------------------|
|------------------------------------------|
|--------------7-6-5-3-5-6-----------------|
|------------7-----------------------------|
|-0-5-4-5-7--------------------------------|

|------------------------------------------|
|------------------------------------------|
|------------------------------------------|
|-12-12-12-12-12-12-12-12-11-9-11-12-------|
|------------------------------------------|
|------------------------------------------|


|-----------------------------------------|
|-----------------------------------------|
|-----------------------------------------|
|-10-10-11-10-9-----9-8-7-5-7-8-----------|
|----------------9------------------------|
|-----------------------------------------|


SOUNDS A BIT WIERD WHEN YOU FIRST PLAY IT BUT IT WILL SOUND RIGHT AT THE END
Tap to rate this tab
 
# A B C D E F G H I J K L M N O P Q R S T U V W X Y Z