Guitaretab - guitar tabs
Song name
# A B C D E F G H I J K L M N O P Q R S T U V W X Y Z

Elvis Presley - Aura Lee tab

there were no other tabs for it. um. hope you like it! :-)




E-----------------------------------------------[
B-------1---0---1---3------3---1---0-------0---1[
G---0------------------2---------------2--------[
D-----------------------------------------------[
A-----------------------------------------------[
E-----------------------------------------------[

E------------------------------------------------[
B-------1---0---1---3------3---1---0------0---1--[
G---0------------------2--------------2----------[
D------------------------------------------------[
A------------------------------------------------[
E------------------------------------------------[
[ Tab from: http://www.guitaretab.com/e/elvis-presley/161718.html ]
E---0---0---0---0---0---0---0-------------0---0---0---1---0----------------[
B------------------------------3---1---3-----------------------3------3----[
G------------------------------------------------------------------2-------[
D--------------------------------------------------------------------------[
A--------------------------------------------------------------------------[
E--------------------------------------------------------------------------[

E-----------0---------------------------[
B---1---0-------3---1-------------------[
G---------------------------------------[
D---------------------------------------[
A---------------------------------------[
E---------------------------------------[
Related for Aura Lee tab
Aura Lee chords by Elvis Presley