Song name
# A B C D E F G H I J K L M N O P Q R S T U V W X Y Z

Elvis Presley - Good Rockin Tonight tab

-------------------------------------------------------------------------------
			     GOOD ROCKING TONIGHT - Elvis Presley
-------------------------------------------------------------------------------
Tabbed by: fsae0607
Email: jarias@avibank.com

Tuning: Standard

This is the lead guitar part of the song.  Sounds best played clean on a Les Paul & tube amp. 
I included portions of the lyrics above the stave to help with timing, and below each stave is 
how many to play it, if applicable.  I hope it's not too hard to read.  This is my very first tab,
so go easy on the commentary! :)  Enjoy!

e|--------|-3----3----3---|-----------------------|---------------3---5-3----|
B|-3h5-5--|---3----3----3-|-5-3-5---5-3-5---3-5-3-|-3-3-3-3------------------|
G|--------|---------------|-----------------------|--------------------------|
D|--------|---------------|-----------------------|--------------------------|
A|--------|---------------|-----------------------|--------------------------|
E|--------|---------------|-----------------------|--------------------------|
     x7                               x2  

                             "...meet me here, hurry..." 
e|-0-----1h2-1h2---1h2-1h2--|------------------------3-3-3-------------------|
B|-0-----1h2-1h2---1h2-1h2--|-3-5--5-3-5-3-5--0-5-3--3-3-3---5-5--3-3--5-5---|
G|--------------------------|------------------------------------------------|
D|--------------------------|------------------------------------------------|
A|--------------------------|------------------------------------------------|
E|--------------------------|------------------------------------------------|
 
        "...all your blues, I heard..."
e|-----|--3--5p3-------------------------------------------------------------|
B|-5-5-|-----------1-1-----3-----------5--3---5------------------------------|
G|-----|-------------------2--2-2--------------------------------------------|
D|-----|---------------------------------------------------------------------|
A|-----|---------------------------------------------------------------------|
E|-----|---------------------------------------------------------------------|

1st SOLO  
e|--12--|--8--|-----|--1h2-1h2---1h2-1h2---3h4-3h4---3h4-3h4-----------------|
B|--12--|--8--|--5--|--1h2-1h2---1h2-1h2---3h4-3h4---3h4-3h4-----------------|
G|------|-----|-----|--------------------------------------------------------|
D|------|-----|-----|--------------------------------------------------------|
A|------|-----|-----|--------------------------------------------------------|
E|------|-----|-----|--------------------------------------------------------|
    x11   x8    x15

                                       "we're gonna rock..."
e|-5h6-5h6---5h6-5h6---------------------------------------------------------|
B|-5h6-5h6---5h6-5h6----5--3---5-3-5-----------------------------------------|
G|---------------------------------------------------------------------------|
D|---------------------------------------------------------------------------|
A|---------------------------------------------------------------------------|
E|---------------------------------------------------------------------------|

"all our blues away..."
e|-----------------------------------------3---3---3---|---------------------|
B|-5-3--5-3-5----5-3-5-3-5-3-5-3-5-0-5-3-----3---3---3-|-5-3-5--5-3-5--3-5-3-|
G|-----------------------------------------------------|---------------------|
D|-----------------------------------------------------|---------------------|
A|-----------------------------------------------------|---------------------|
E|-----------------------------------------------------|---------------------|
                                                                  x2 

e|------------3---5-3---0---1h2--1h2---1h2--1h2------------------------------|
B|-3-3-3-3--------------0---1h2--1h2---1h2--1h2------------------------------|
G|---------------------------------------------------------------------------|
D|---------------------------------------------------------------------------|
A|---------------------------------------------------------------------------|
E|---------------------------------------------------------------------------|

2nd SOLO
e|-----|--8---|--12--|--1h2--1h2---1h2--1h2----3h4--3h4---3h4--3h4-----------|
B|--5--|--8---|--12--|--1h2--1h2---1h2--1h2----3h4--3h4---3h4--3h4-----------|
G|-----|------|------|-------------------------------------------------------|
D|-----|------|------|-------------------------------------------------------|
A|-----|------|------|-------------------------------------------------------|
E|-----|------|------|-------------------------------------------------------|
   x8     x8     x15
 
                                        "we're gonna rock..."
e|-5h6--5h6---5h6--5h6-------------------------------------------------------|
B|-5h6--5h6---5h6--5h6---5-3--5-3-5------------------------------------------|
G|---------------------------------------------------------------------------|
D|---------------------------------------------------------------------------|
A|---------------------------------------------------------------------------|
E|---------------------------------------------------------------------------|

"...all our blues away!"
e|---------------------------------------------------------------------------|
B|-5-5-5--3--5-3-5-5---------------------------------------------------------|
G|---------------------------------------------------------------------------|
D|---------------------------------------------------------------------------|
A|---------------------------------------------------------------------------|
E|---------------------------------------------------------------------------|

| /  slide up
| \  slide down
| h  hammer-on
| p  pull-off
| ~  vibrato
| +  harmonic
| x  Mute note
===============================================================================
Tap to rate this tab
# A B C D E F G H I J K L M N O P Q R S T U V W X Y Z