Song name
# A B C D E F G H I J K L M N O P Q R S T U V W X Y Z

Elvis Presley - Heartbreak Hotel tab

//////////////////////////////////////////////////////////////
               ELVIS PRESLEY: HEARTBREAK HOTEL
/////////////////////////////////////////////////////////////

standard tuning: E A D G B E


VERSE

                              E

|-----------------------------12--12----|-----------------------------12--12----|
|-----------------------------12--12----|-----------------------------12--12----|
|-----------------------------13--13----|-----------------------------13--13----|
|-----------------------------14--14----|-----------------------------14--14----|
|---------------------------------------|---------------------------------------|
|---------------------------------------|---------------------------------------|

 Well, since my baby left me             I found a new place to dwell



|---------------------------------------|---------------------------------------|
|---------------------------------------|---------------------------------------|
|---------------------------------------|---------------------------------------|
|---------------------------------------|---------------------------------------|
|---------------------------------------|---14--14--12--12--11--11-9--9---------|
|---------------------------------------|---12--12--10--10--9---9--7--7---------|

 It's down at the end of lonely street,  at     Heartbreak    Hotel


CHORUS

|---------------------------------------|------------------------------------------------------|
|---------------------------------------|------------------------------------------------------|
|---------------------------------------|------------------------------------------------------|
|---------------------------------------|------------------------------------------------------|
|-7--7--9--9--7--7--9--9--7--7--9--9--7-|7--9--9--9--11-11-9--9--11-----2-2--0-0---------------|
|-5--5--5--5--5--5--5--5--5--5--5--5--5-|5--5--7--7--7--7--7--7--7----------------4-4--2-2--0--|

   You make me so lonely baby, I get so lonely, I get so lonely I could die



And although it's always crowded,
you still can find some room.
Where broken hearted lovers
do cry away their gloom.

You make me so lonely baby,
I get so lonely,
I get so lonely I could die.

Well, the bellhop's tears keep flowin',
and the desk clerk's dressed in black.
Well they been so long on lonely street
They ain't ever gonna look back.

You make me so lonely baby,
I get so lonely,
I get so lonely I could die.



SOLO

|--12--12--12--12----------12---|
|--12--12--12--12--12--15--12---|
|--13--13--13--13--13--13--13---|
|--14--14--14--14--14--14--14---|
|-------------------------------|
|-------------------------------|



|--12--12--12--12---------------|
|--12--12--12--12--12--15-------|
|--13--13--13--13--13--13-------|
|--14--14--14--14--14--14-------|
|-------------------------------|
|-------------------------------|



|--12--12--12--12--12------12---|--12-12-12-12-12-12-12-12-12-12-12-12--|
|--12--12--12--12--12--15--12---|--12-12-12-12-12-12-12-12-12-12-12-12--|
|--13--13--13--13--13--13--13---|--13-13-13-13-13-13-13-13-13-13-13-13--|
|--14--14--14--14--14--14--14---|--14-14-14-14-14-14-14-14-14-14-14-14--|
|-------------------------------|---------------------------------------|
|-------------------------------|---------------------------------------|


(during the piano solo)

|------------------------------------------------|
|------------------------------------------------|
|------------------------------------------------|
|------------------------------------------------|
|-7--7--9--9--7--7--9--9--7--7--9--9--7--7--9--9-|
|-5--5--5--5--5--5--5--5--5--5--5--5--5--5--5--5-|



|------------------------------------------------|
|------------------------------------------------|
|------------------------------------------------|
|------------------------------------------------|
|-2--2--0--0--------------------------2--2--4--4-|
|-------------4--4--2--2--0--0--4--4-------------|



Hey now, if your baby leaves you,
and you got a tale to tell.
Just take a walk down lonely street
to Heartbreak Hotel.

You make me so lonely baby,
I get so lonely,
I get so lonely I could die.


Ending

|------------------------------5---4------|
|------------------------------5---4------|
|------------------------------6---5------|
|------------------------------7---6------|
|--2--2--0--0-----------------------------|
|--------------4--4--2--2--0--------------|
Tap to rate this tab
# A B C D E F G H I J K L M N O P Q R S T U V W X Y Z