Song name
# A B C D E F G H I J K L M N O P Q R S T U V W X Y Z

Elvis Presley - Hound Dog tab

both guitar solos to HOUND DOG
SCOTTY MOORE=electric guitar
(first solo)
e|---------------------------------------------------------------------------|
B|---------------------------------------------------------------------------|
G|----------------------------------------------------------------------5----|
D|---------1---1-------------------1-3-1---------------------------5-7-------|
A|----1-3----3---3--1---1-3----1-3--------3-1----1-3-------5-6-7-------------|
E|-3------------------3------3-----------------3-------8B--------------------|

e|--------------8--11--8-----------------------------------------------8-----|
B|------8--10------------11-10-8----8---------------------------8-10---------|
G|-8-9---------------------------11---11--10-8------------8-9----------------|
D|-----------------------------------------------10-8-10---------------------|
A|---------------------------------------------------------------------------|
E|---------------------------------------------------------------------------|

e|---11----8\---8\---8\--11----8------------------11--8----------------------|
B|---10----8\---8\---8\--10--------10--8--10---8--10--8----8--8--------------|
G|---------------------------------10--8--10---8-----------8--8------------5-|
D|---------------------------------------------------------------------------|
A|--------------------------------------------------------------------5-7----|
E|-----------------------------------------------------------------8---------|

e|--------------------------------------------|
B|--------------------------------------------|
G|-----------5---------5----------------------|
D|----7--5------7--5--------------------------|
A|--------------------------------------------|
E|--------------------------------------------|




(second solo)


e|----------3/-------8-------11--8--11B----8---11B--8---10s11--8-------------|
B|----------3/-------8----------------------------------10s11--8---8----8--8-|
G|----5-----3/-----------------------------------------------------8----8--8-|
D|----5----------------------------------------------------------------------|
A|----0----------------------------------------------------------------------|
E|---------------------------------------------------------------------------|




e|--8----11----8-------11----8------7s8----10-----7s8--10----12---12---10----|
B|--8----10------8-----10------8----7s8----10-----7s8--10----12---12---10----|
G|-----------------------------------------------------------12---12---10----|
D|---------------------------------------------------------------------------|
A|---------------------------------------------------------------------------|
E|---------------------------------------------------------------------------|



e|---8---10--------------------------------------|
B|---8---10--------------------------------------|
G|---8---10---------------8----------------------|
D|------------10-----10-----10-----8----10-------|
A|-----------------------------------------------|
E|-----------------------------------------------|

(outro)
e|---------9-----8------------------------|
B|---------11----10-----------------------|
G|---------10----9------------------------|
D|----------------------------------------|
A|----------------------------------------|
E|----------------------------------------|

Tap to rate this tab
 
# A B C D E F G H I J K L M N O P Q R S T U V W X Y Z