Song name
# A B C D E F G H I J K L M N O P Q R S T U V W X Y Z

Elvis Presley - Indescribably Blue tab

Just a lil something I found out
I'm not the best at making tabs but thought I'd make one
Tab by G. Pletnikoff
The two-string chords are strummed fast until the three-string chords come

E---12-12-12-12-12-10-10-10-10-10-8--8--8-8-8---7-7-7-7-7-5-5-5-5-5-1-1-1-1-1-|
B---13-13-13-13-13-12-12-12-12-12-10-10-10-10---8-8-8-8-8-6-6-6-6-6-3-3-3-3-3-|
G-----------------------------------------------------------------------------|
D-----------------------------------------------------------------------------|
A-----------------------------------------------------------------------------|
E-----------------------------------------------------------------------------|


E-1----3----5----3----1----0~~~~~~~-------------------------------------------|
B-3----5----6----5----3----1~~~~~~~-------------------------------------------|
G-0----0----0----0----0----0~~~~~~~-------------------------------------------|
D-----------------------------------------------------------------------------|
A-----------------------------------------------------------------------------|
E-----------------------------------------------------------------------------|
Tap to rate this tab
 
# A B C D E F G H I J K L M N O P Q R S T U V W X Y Z