Song name
# A B C D E F G H I J K L M N O P Q R S T U V W X Y Z

Elvis Presley - Amazing Grace tab

v=DOWN I COULDNT FIND ANYTHING SHOWING A DOWN ARROW SO I PUT THAT FOR DOWN

E---------------------------------------------------------------------------------------|
A---------------------------------------------------------------------------------------|
D-12--------------------14-12-12---------------------------------------14-12------------|
G---12-14^v-12-14^^v-12---------12-14^v-12-14^v-----------------------------------------|
B----------------------------------------------12-15^v-14^v-12-14^^v-12-----------------|
E---------------------------------------------------------------------------------------|

E---------------------------------------------------------|
A---------------------------------------------------------|
D-12------------------------------------------------------|
G----12-14^v-12-14^^v-12----------------------------------|
B---------------------------------------------------------|
E---------------------------------------------------------|

thats the whole song
Tap to rate this tab
# A B C D E F G H I J K L M N O P Q R S T U V W X Y Z