Song name
# A B C D E F G H I J K L M N O P Q R S T U V W X Y Z

Elvis Presley - Love Me Tender tab

intro of LOVE ME TENDER Elvis Presley   
by: Hans112

E|---------------------------------------|
B|---------------------------------------|
G|---4--3-4--6---6--4-3--3---3-4---------|
D|-4-----------6-----------6------4-4----|
A|---------------------------------------|
E|---------------------------------------|2x

E|------------------------------------------------------------|
B|-4-4-4--4-4-4--4--------4--4-4-5-4--------------------------|
G|-----------------6-4--6-------------6---6--4-3--3---3-4-----|
D|--------------------------------------6-----------6-----4-4-|
A|------------------------------------------------------------|
E|------------------------------------------------------------|THE END!
Tap to rate this tab
 
# A B C D E F G H I J K L M N O P Q R S T U V W X Y Z