Elvis Presley - Ive Got A Thing About You Baby tab

---------------------------------------------------------------------------
I've got a thing about you baby  Elvis Presley
---------------------------------------------------------------------------
Tabbed by: maguri
Tuning: Standard

Elvis Presley
I've got a thing about you baby (1973)
(T. J. White)
Now on: "Rhythm And Country - Essential Elvis Vol. 5"

Intro (Bass)
e|-------------------|----------------|
B|-------------------|----------------|
G|-------------------|----------------|
D|-------------------|----------------|
A|11-11-9------------|7-9-7-------7-7-|
E|-------12-12-9-7-9-|---9---9-7-9-9--|


Riff
  E
e|9---7-----------|----------------|9---7-----------|----------------|
B|--------9-7-5-2-|5---7---9-------|--------9-7-5-2-|5---7---5-------|
G|9---9-----------|----------------|9---9-----------|----------------|
D|--------9-7-6-4-|6---7---9-------|--------9-7-6-4-|6---7---6-------|
A|----------------|----------------|----------------|----------------|
E|----------------|----------------|----------------|----------------|


Intro (Bass) | Riff |

E
I've got something to tell you

That I think you ought to know
E
That my eyes are on you baby 

Since a long time ago
E
And now I fin'ly got the nerve

And I'm gonna make my move

E
Now don't you try to turn me off

Cause it's gonna be hard to do


           A               G#m
I've got a thing about you baby
       F#m          E
Ain't nothing I can do
           A               G#m
I've got a thing about you baby
  F#m                E
A thing about lovin' you (Riff)


E
Ain't it just like a woman
When she knows she's got a man
She'll wring you out and turn you 'bout
In the palm of her hand
And then she starts to thinkin'
Then maybe she's put you in a blind
She'll give you just a little lovin'
It'll drive you out of your mind

           A               G#m
I've got a thing about you baby
       F#m          E
Ain't nothing I can do
           A               G#m
I've got a thing about you baby
  F#m                E
A thing about lovin' you 

           A               G#m
I've got a thing about you baby
       F#m          E
Ain't nothing I can do
           A               G#m
I've got a thing about you baby
  F#m                E
A thing about lovin' you (Riff)

Tap to rate this tab
 
# A B C D E F G H I J K L M N O P Q R S T U V W X Y Z