Elvis Presley - Mystery Train tab

This is the rhythm/lead part for Mystery Train
     E
e|---------------------------------------------|
B|-----0--------2----------0-------------------|
G|-----0h1------2----------0h1-------2---------|
D|-----2-----------2-------2-------------2-----|
A|----------2--------------------2-------------|
E|---0-------------------0---------------------|

e|---------------------------------------------|
B|-----0--------2----------0-------------------|
G|-----0h1------2----------0h1-------2---------|
D|-----2-----------2-------2-------------2-----|
A|----------2--------------------2-------------|
E|---0-------------------0---------------------|

e|---------------------------------------------|
B|-----0--------2----------0-------------------|
G|-----0h1------2----------0h1-------2---------|
D|-----2-----------2-------2-------------2-----|
A|----------2--------------------2-------------|
E|---0-------------------0---------------------|

e|---------------------------------------------|
B|-----0--------2----------0-------------------|
G|-----0h1------2----------0h1-------2---------|
D|-----2-----------2-------2-------------2-----|
A|----------2--------------------2-------------|
E|---0-------------------0---------------------|

     A7
e|-------------------0-------------------------|
B|-------2----------------------2--------------|
G|-----------0--------------0------------------|
D|-------2------------------------2------------|
A|---0----------0---------0--------------------|
E|---------------------------------------------|

e|-------------------0-------------------------|
B|-------2----------------------2--------------|
G|-----------0--------------0------------------|
D|-------2------------------------2------------|
A|---0----------0---------0--------------------|
E|---------------------------------------------|

       E
e|---------------------------------------------|
B|-----0--------2----------0-------------------|
G|-----0h1------2----------0h1-------2---------|
D|-----2-----------2-------2-------------2-----|
A|----------2--------------------2-------------|
E|---0-------------------0---------------------|

                        B7
e|---------------------------------------------|
B|-----0--------2--------------------0---------|
G|-----0h1------2------------------------------|
D|-----2-----------2-----------------0h1-------|
A|----------2--------------0---1---2---------2-|
E|---0-----------------3-----------------------|

                                    A7
e|-----------------------------------3-----0---|
B|---------0------------------0----------------|
G|---2---------------2-------------------------|
D|------1--------------------------------------|
A|---------2-----2-------2----2----------------|
E|---------------------------------------------|

e|------------0--------------------------------|
B|---3p0---------------------------------------|
G|---------3-----2------2h3p2p0-----2----------|
D|---------------------------------------------|
A|---------------------------------------------|
E|---------------------------------------------|

     E
e|---------------------------------------------|
B|-----0--------2----------0-------------------|
G|-----0h1------2----------0h1-------2---------|
D|-----2-----------2-------2-------------2-----|
A|----------2--------------------2-------------|
E|---0-------------------0---------------------|

e|---------------------------------------------|
B|-----0--------2----------0-------------------|
G|-----0h1------2----------0h1-------2---------|
D|-----2-----------2-------2-------------2-----|
A|----------2--------------------2-------------|
E|---0-------------------0---------------------|
Tap to rate this tab
 
# A B C D E F G H I J K L M N O P Q R S T U V W X Y Z