Song name
# A B C D E F G H I J K L M N O P Q R S T U V W X Y Z

Elvis Presley - Home Is Where The Heart Is chords

Highlighted       Show chord diagrams
---------------------------------------------------------------------------
                Home is Where the Heart Is - Elvis Presley
---------------------------------------------------------------------------
Tabbed by: maguri
Tuning: Standard

Elvis Presley
Home is Where the Heart Is (1961)
(Edwards/David)

From the movie "Kid Galahad"
Now on "The Original Elvis Presley Collection 17"

---------------------------------------------------------------------------

INTRO
  C                Am               Em               Am
e|----------------|----------------|----------------|----------------|
B|----------------|----------------|----------------|----------------|
G|----------------|----------------|0---------------|2-4-2-----------|
D|----------------|--------------2-|--------------2-|------5-2-------|
A|----3-5-3-----5-|7\5-3-------3---|----------------|------------3---|
E|----------------|----------------|----------------|----------------|
  F                C                C
e|----------------|----0---1---3---|----0---1---3---|
B|----------------|----1---3---5---|----1---3---5---|
G|----------------|--0---0---0-----|--0---0---0-----|
D|0-2-0-----------|----------------|----------------|
A|------3-0-------|----------------|----------------|
E|------------3---|----------------|----------------|

LICK
  C                C
e|----0---1---3---|----0---1---3---|
B|----1---3---5---|----1---3---5---|
G|--0---0---0-----|--0---0---0-----|
D|----------------|----------------|
A|3---------------|3---------------|
E|----------------|----------------|


---------------------------------------------------------------------------

INTRO
| C | Am | Em | Am | F | C | C |

C                   Am
  Home is where the heart is
       Em       Am               Am/G
And my heart is anywhere you are
F            G      | C | % | C
Anywhere you are is home [LICK]

C               Am           Em
 I don't need a mansion on a hill
     Am
That overlooks the sea
F                    G    | C | % | C
Anywhere you're with me is home [LICK]

Em            F
  Maybe I'm a rolling stone
Em                     F
   Who won't amount to much
Em                    F
  But everything that I hold dear
D7                  G
 Is close enough to touch

C                       Am
  For home is where the heart is
       Em       Am               Am/G
And my heart is anywhere you are
F            G      | C | % | C
Anywhere you are is home [LICK]

Em            F
  Maybe I'm a rolling stone
Em                     F
   Who won't amount to much
Em                    F
  But everything that I hold dear
D7                  G
 Is close enough to touch

C                       Am
  For home is where the heart is
       Em       Am               Am/G
And my heart is anywhere you are
F            G      C           F     Dm    | C | % | C
Anywhere you are is home, home, home, home, home [LICK]
Tap to rate this tab
# A B C D E F G H I J K L M N O P Q R S T U V W X Y Z