Song name
# A B C D E F G H I J K L M N O P Q R S T U V W X Y Z

Elvis Presley - Too Much tab

Elvis Presley  Too Much

Tabbed by: Marcus Sander
Email: corpsegrinder020@gmx.de

Tuning: E A D G h e

Intro
|----------------------------------------------------------|
|----------------------------------------------------------|
|----------------------------------------------------------|
|-----10-10-8-8-10-8-----8-8-6-6-8-6-----------------------|
|-6-6----------------4-4-----------------8-8-6-6-8-6-------|
|------------------------------------4-4--------------4--4-|


Blues-Schema

I                  I`     IV                  V
|-----------------|------|------------------|---------------------|
|-----------------|------|------------------|---------------------|
|-----------------|------|------------------|---------------------|
|-----------------|------|-----8-8-6-6-8-6--|-----10-10-8-8-10-8--|
|-----8-8-6-6-8-6-|------|-4-4--------------|-6-6-----------------|
|-4-4-------------|-4--4-|------------------|---------------------|

1 Strophe = 1 Blues-Schema (12 Takte)
|I   |I   |I   |I   |
|IV  |IV  |I   |I   |
|V   |IV  |I   |I`  |

Solo
|---------------------------------------------------------------------|
|-1-2-3-4-3-2---1-2-3-4-3-2-1---1-2-3-4-3-2-1-2-3-4-3-2-1-2-3-4-3-2-1-|
|-1-2-3-4-3-2---1-2-3-4-3-2-1---1-2-3-4-3-2-1-2-3-4-3-2-1-2-3-4-3-2-1-|
|-1-2-3-4-3-2---1-2-3-4-3-2-1---1-2-3-4-3-2-1-2-3-4-3-2-1-2-3-4-3-2-1-|
|---------------------------------------------------------------------|
|---------------------------------------------------------------------|


|-------------------------------------------------------3-4-5-|
|-------------------------------3-4-5-3-4-5-3-4-5-3-4-5-------|
|---------1-3-4-----------1-3-4-------------------------------|
|---1-2-3-----------1-2-3-------------------------------------|
|-4---------------4-------------------------------------------|
|-------------------------------------------------------------|


|-4-5-6-5-4-3--------------------------------------------------------------|
|-------------6-5-4-3-----------4-6-4-----------4-6-4-----------4-6-4------|
|---------------------6-5-4-5-6-------6-5-4-5-6-------6-5-4-5-6-------6-5--|
|--------------------------------------------------------------------------|
|--------------------------------------------------------------------------|
|--------------------------------------------------------------------------|


|------------------------------------------------------|
|-----------4---4--------------------------------------|
|-4h5---4h5---6---4h5---4b-----------------------------|
|-----6---------------6----6\--------------------------|
|------------------------------------------------------|
|------------------------------------------------------|
Tap to rate this tab
# A B C D E F G H I J K L M N O P Q R S T U V W X Y Z