Song name
# A B C D E F G H I J K L M N O P Q R S T U V W X Y Z

Elvis Presley - You Dont Know Me tab

---------------------------------------------------------------------------
                You Don't Know Me - Elvis Presley
---------------------------------------------------------------------------
Tabbed by: maguri
Tuning: Standard

Elvis Presley
You Don't Know Me (1967)
(C. Walker/E. Arnold)

From the movie "Clambake"

Now on: "Command Performances: The Essential 60's Masters II [Disc 2]"
   and "Elvis Double Features: Kissin' Cousins/Clambake/Stay Away, Joe"

---------------------------------------------------------------------------

Capo 3rd fret

INTRO

  G       D/G      C/G    Cm/G     Gsus G   A6       Am      D7 
e|----------------|--------3-------|--------2-----0-|--------2-------|
B|3-----3-3-----3-|3---1--(1)----1-|1---0---0-------|------1-1-------|
G|0---0-------2---|0---0-------0---|0---0-------0---|2---2---2-------|
D|--0-------4-----|--2---2---1-----|--0---0---2-----|--2-----0-------|
A|----------------|----------------|--------0-------|0---------------|
E|3-------3-------|3-------3-------|3---------------|----------------|

---------------------------------------------------------------------------
CHORDS

          e-B-G-D-A-E
G*        x-3-0-0-x-3
D/G       x-3-2-4-x-3
Cadd9/G   x-3-0-2-x-3
C/G       x-1-0-2-x-3
Cm/G      3-1-0-1-x-3  or
          3-4-5-5-x-3
A6        2-2-2-2-0-x
A7/9      0-0-0-2-0-x
C#dim     x-5-3-5-4-x
G/D       3-0-0-0-x-x
B7b9      x-1-2-1-2-x
B7*       x-0-2-1-2-x

---------------------------------------------------------------------------

Capo 3rd fret

INTRO

| G* D/G | Cadd9/G C/G Cm/G   | Gsus G A6 A7/9 | Am D7 |

              G          Gmaj7        G6         G7
You give your hand to me and then you say hello
          C            Cmaj7        C6          C#dim
And I can hardly speak, my heart is beating so
       G/D            E7             Am
And anyone could tell, you think you know me well
D7             B7b9 B7*  E  Am7  D7
 But you don't know me

             G           Gmaj7          G6            G
No you don't know the one who dreams of you at night
             C             Cmaj7         C6            C#dim
And longs to kiss your lips and longs to hold you tight
           G/D           E7                   Am
To you I'm just a friend, and that's all I've ever been
D7             | G C/G | G |
 But you don't know me

    C                Bm            E
For I never knew the art of making love
          Am               D7       G
Though my heart aches with love for you
 Em              Bm               E7
Afraid and shy I let my chance go by
    A                             D7
The chance that you might love me too

              G         Gmaj7         G6            G
You give your hand to me and then you say good-bye
            C        Cmaj7       C6          C#dim
I watch you walk away beside the lucky guy
          G/D       E7           Am
To never, never know the one who loves you so
              [G]
No, you don't know me

OUTRO
| G Gmaj7 | Cadd9/G C/G Cm/G   | Gsus G Am7 D7 | Gmaj7

Tap to rate this tab
# A B C D E F G H I J K L M N O P Q R S T U V W X Y Z