Song name
# A B C D E F G H I J K L M N O P Q R S T U V W X Y Z

Elvis Presley - Suspicious Minds tab

-------------------------------------------------------------------------------
                             Suspicious Minds - written by Mark James
                                               Sung by Elvis Presley
-------------------------------------------------------------------------------
Tabbed by: Tyler Pratt
E-mail: zasphrase@hotmail.com

Tuning: Standard
       Intro: 
           G             C              G                 C
e|-----------------|-------------|---------------|---------------------------|
B|----------0------|----1----1---|---------0-----|-----1----1----------------|
G|------0-------0--|--0---0----0-|-----0-------0-|---0---0-----0-------------|
A|-----------------|3------------|---------------|-3-------------------------|
E|--3--------------|-------------|-3-------------|---------------------------|
    Verses:
           G             C              G                 C
e|-----------------|-------------|---------------|---------------------------|
B|----------0------|----1----1---|---------0-----|-----1----1----------------|
G|------0-------0--|--0---0----0-|-----0-------0-|---0---0-----0-------------|
A|-----------------|3------------|---------------|-3-------------------------|
E|--3--------------|-------------|-3-------------|---------------------------|
              We're caught in a trap
           
         C               Csus4                C                Csus4
e|----------0------|------1---1------|--------0--------|------1---1----------|
B|------1------1---|----1---1-----1--|----1-------1----|----1---1----1-------|
G|-----------------|-----------------|-----------------|---------------------|
D|-----------------|-----------------|-----------------|---------------------|
A|--3--------------|--3--------------|--3--------------|--3------------------|
E|-----------------|-----------------|-----------------|---------------------|
                I can't walk out
             
         D                                C
e|----------2--------------2-----|----------0-------------0-----|-----------|
B|------3-------3-----3--------3-|------------------------------|--Repeat---|
G|-------------------------------|------0-------0-----0------0--|-from------|
D|--0--------------0-------------|------------------------------|-Intro-----|
A|-------------------------------|--3---------------3-----------|-----------|
E|-------------------------------|------------------------------|-----------|
           Because         I  Love    you       too       much, baby


END OF SECOND VERSE
 
         D                C                Bm                D7
e|------------2-----|---------0------|----------2------|-------------2-------|
B|--------3-------3-|----------------|-----0--------0--|--------1---------1--|
G|------------------|-----0-------0--|-----------------|---------------------|
D|----0-------------|----------------|-----------------|---0-----------------|
A|------------------|--3-------------|--2--------------|---------------------|
E|------------------|----------------|-----------------|---------------------|
... I say



 Chorus: 
               note: for chorus, use this strum pattern for all chords 
EX.           C
e|--------0-------------0-----|
B|----------------------------|
G|-----0-----0------0------0--|
D|----------------------------|
A|--3------------3------------|
E|----------------------------|
                                             (once each for the C and D)
       C            G          Bm                  C   D
        We can't go on together, with suspicious minds;
      Em            Bm               C               D
       And we can't build our dreams, on suspicious minds.


Bridge:

 Strum only once each as you normally would
Em           Bm
Oh, let our love survive
C            D
Ah, dry the tears from my eyes
Em                 Bm
Let's don't let a good thing die
C                   D              G   C     G    D
There's gonna be nobody ever like you, um - yeah


Hope this works out for you!
Tap to rate this tab
 
# A B C D E F G H I J K L M N O P Q R S T U V W X Y Z