Song name
# A B C D E F G H I J K L M N O P Q R S T U V W X Y Z

Elvis Presley - Youre The Devil In Disguise tab

Artist: Elvis Presley
Song: (You're The) Devil In Disguise
Tuning: standard


These are the four chords played in this song:
|--6---8----8-----5----------------------|
|--6---8----10----6----------------------|
|--7---9----10----7----------------------| (chords used)
|--8---10---10----7----------------------|
|--8---10---8-----5----------------------|
|--6---8----x-----x----------------------|
   A#  C    F     Dm


(1) Intro: A#  C  F

(2) Palm-mute the strings a bit:
|-----------8-----------------------------|
|---------10--10--------------------------|
|-------10------10------------------------| (x4)
|-----10----------10----------------------|
|-8--8------------------------------------|
|-----------------------------------------|

|-------------10----------------------------|
|-----------11--11--------------------------|
|---------10------10------------------------| (x2)
|-------12----------12----------------------|
|-13--13------------------------------------|
|-------------------------------------------|

|-------------12----------------------------|
|-----------13--13--------------------------|
|---------12------12------------------------| 
|-------14----------14----------------------|
|-15--15------------------------------------|
|-------------------------------------------|


(3)Then strum these chords: 
F F Dm Dm
F F Dm Dm
F F F F
Dm Dm Dm Dm
F F Dm Dm
A#  C   F


(4) Repeat (2).

(5) Repeat (3).

(6) Repeat (2).

(7) Same as (3) with some variations.
Tap to rate this tab
# A B C D E F G H I J K L M N O P Q R S T U V W X Y Z