Song name
# A B C D E F G H I J K L M N O P Q R S T U V W X Y Z

Elvis Presley - What You Want Me To Do tab

		What You Want Me To Do by Elvis Presley
                ---------------------------------------
Tabbed by:thekid.8.10.90

intro:
e|----------------------------------------------------------------------------|
B|----------------------------------------------------------------------------|
G|----------------------------------------------------------------------------|
D|----------------------------------------------------------------------------|
A|---------------0--0--1--1--2--3--2------2--2--2--2--3--3--2--2--3--3--------|
E|--0--0--4--4----------------------------0--0--0--0--0--0--0--0--0--0--------|
                                                                           2x
e|----------------------------------------------------------------------------|
B|----------------------------------------------------------------------------|
G|----------------------------------------------------------------------------|
D|----------------------------------------------------------------------------|
A|---2--2--3--3--2--2--3--3--2--2--3--3--2--2--3--3---------------------------|
E|---0--0--0--0--0--0--0--0--0--0--0--0--0--0--0--0---------------------------|

e|----------------------------------------------------------------------------|
B|----------------------------------------------------------------------------|
G|----------------------------------------------------------------------------|
D|--2--2--3--3--2--2--3--3--2--2--3--3--2--2--3--3----------------------------|
A|--0--0--0--0--0--0--0--0--0--0--0--0--0--0--0--0----------------------------|
E|----------------------------------------------------------------------------|

e|---------------------------------------------------------------------------|
B|---------------------------------------------------------------------------|
G|---------------------------------------------------------------------------|
D|---------------------------------------------------------------------------|
A|--2--2--3--3--2--2--3--3--2--2--3--3--2--2--3--3---------------------------|
E|--0--0--0--0--0--0--0--0--0--0--0--0--0--0--0--0---------------------------|

e|----------------------------------------------------------------------------|
B|----------------------------------------------------------------------------|
G|----------------------------------------------------------------------------|
D|--4--4--4--4-----2--2--3--3--4--4--3--3-------------------------------------|
A|--2--2--2--2-----0--0--0--0--0--0--0--0-------------------------------------|
E|----------------------------------------------------------------------------|

e|----------------------------------------------------------------------------|
B|--------------------------------0-------------------------------------------|
G|--------------------------------0-------------------------------------------|
D|--------------------------------0-------------------------------------------|
A|--------------0--0--1--1--2--3--2-------------------------------------------|
E|--0--0--4--4--------------------0-------------------------------------------|
Tap to rate this tab
# A B C D E F G H I J K L M N O P Q R S T U V W X Y Z