Song name
# A B C D E F G H I J K L M N O P Q R S T U V W X Y Z

Elvis Presley - Devil In Diguise tab

Help us improve GuitareTab! Take a short survey!
E----------------------------------------------------------1----1----1----|
B--9b10---10---10---10---10\6-6---1-1---3p1---------1-3----1h3--1h3-------|
G---------------------------------------------2p0---2---------------------|
D-------------------------------------------------------------------------|
A-------------------------------------------------------------------------|
E-------------------------------------------------------------------------|


E-8h10-13 13^--88-8--4h6-8---4-4h6--4--1--1-----10-1010-1010-12-1212-1212-13\---|
B----------------------------------------3----3-- 11-1111-1111-13-1313-1313-10\-|
G-------------------------------------------------------------------------------|
D-------------------------------------------------------------------------------|
A-------------------------------------------------------------------------------|
E-------------------------------------------------------------------------------|

NOTE: At
-10-1010-1010-12-1212-1212-13\-|
-11-1111-1111-13-1313-1313-10\-|

1111 is (eleven)(eleven), but there is no space as to show the timing better
Related for Devil In Diguise tab