Song name
# A B C D E F G H I J K L M N O P Q R S T U V W X Y Z

Elway - 34 Eleanor tab

Elway - 3/4 Eleanor

Verse

E|----------------------------------------------------------|
B|----------------------------------------------------------|
G|---------------------------------------------6-----6------|
D|-2--7--4----2--7--4--------------4----------7-7---7-7-----|
A|-0--7--5----0--7--5-----0--2--4--5--0--2---7---7-7---7----|
E|------------------------2--4--5-----2--4--5-----5---------|


E|----------------------------------------------------------|
B|----------------------------------------------------------|
G|----------------------------------------------------------|
D|-2--7--4----2--7--4--------------4--------7777777---------|
A|-0--7--5----0--7--5-----0--2--4--5--0--2--7777777---------|
E|------------------------2--4--5-----2--4--5555555---------|

Chorus

E|-------------------------------------------------4--------|
B|--------------------------------------------------7-5-----|
G|-------7-----------7--7--------7--------------6----6-6----|
D|-4--2--7--7--4--2--7--7--4--2--7--7--4--2--7-7-7------9---|
A|-4--2--5--7--4--2--5--5--4--2--5--7--4--2--77---7---------|
E|-2--0-----5--2--0--------2--0-----5--2--0--5--------------|

E|-------4------------4------6-5-----5----------------------|
B|--------7-5----------7-5---6---6---5----------------------|
G|----6----6-6-----6----6-6--6-----7-6----------------------|
D|-7-7-7------9-7-7-7------9-8-------7----------------------|
A|-77---7-------77---7-------8-------7----------------------|
E|-5------------5------------6-------5----------------------|
Tap to rate this tab
 
# A B C D E F G H I J K L M N O P Q R S T U V W X Y Z