Song name
# A B C D E F G H I J K L M N O P Q R S T U V W X Y Z

Elway - One Flew West tab

Elway - One Flew West

Intro
E|----------------------------------------------------------|
B|----------------------------------------------------------|
G|----2-----2-----2-----2-----2-----2-----2-----2-----------|
D|---4-4---4-4---4-4---4-4---4-4---4-4---4-4---4-4--4-------|
A|--5---5-5---5-5---5-5---5-5---5-5---5-5---5-5---5-5-------|
E|-3-----3-----3-----3-----3-----0-----0-----0------0-------|

  2x
E|---------------------------------------|------------------|
B|-7-7-7-7---7-7-7-7---------------------|------------------|
G|-0-0-0-0---0-0-0-0---7-7-7-7---7-7-7-7-|-7----------------|
D|-4-4-4-4---4-4-4-4---0-0-0-0---0-0-0-0-|-7--7-------------|
A|-5-5-5-5---5-5-5-5---5-5-5-5---5-5-5-5-|-5--7-------------|
E|-0-0-0-0---0-0-0-0---0-0-0-0---0-0-0-0-|----5-------------|

Verse
E|----------------------------------------------------------|
B|-3---------------3----------------------------------------|
G|-4---4---7-6-4---4---4---7-6-4----------------------------|
D|-4---5---7-7-5---4---5---7-7-5----------------------------|
A|-2---5---5-7-5---2---5---5-7-5----------------------------|
E|-----3-----5-3-------3-----5-3----------------------------|

Bridge
E|-0-0------------------------------------------------------|
B|----------------------------------(--7--5--)--------------|
G|-----7---12-11-4---12-11-9--11-9--(6b-6b-6b)--------------|
D|-----7---xx--x-4---xx--x-7---x-x-4------------------------|
A|-----5---10--9-2---10--9-7---9-7-4------------------------|
E|---------------------------------2------------------------|

"Where life would stand so still"
E|----------------------------------------------------------|
B|-3------------------3-------------------------------------|
G|-4--6--7------------4--6--7------------7------------------|
D|-4--7--7----2---5---4--7--7----2---5-7-7------------------|
A|-2--7--5----2---5---2--7--5----2---5-7-5------------------|
E|----5-------0---3------5-------0---3-5--------------------|

"And when my bones are laid"
E|----------------------------------------------------------|
B|----------------------------------------------------------|
G|-7---4-----------7---4------------------------------------|
D|-7---4---7---5---7---4---7---5----------------------------|
A|-5---2---7---5---5---2---7---5----------------------------|
E|---------5---3-----------5---3----------------------------|

Outro
E|----------------------------------------------------------------------------|
B|-77777777-7778888-77777777-7778888------------------------------------------|
G|-77777777-7777777-77777777-7777777-77777777-7777777-77777777-7777777-7----4-|
D|-55555555-5555555-55555555-5555555-00000000-0000000-00000000-0000000-7--7-4-|
A|-55555555-5555555-55555555-5555555-55555555-5555555-55555555-5555555-5--7-2-|
E|-00000000-0000000-00000000-0000000-00000000-0000000-00000000-0000000----5---|
Tap to rate this tab
# A B C D E F G H I J K L M N O P Q R S T U V W X Y Z