Song name
# A B C D E F G H I J K L M N O P Q R S T U V W X Y Z

Ely Buendia - Higante tab

HIGANTE by Ely Buendia and Francis M (Hardware Syndrome)


INTRO:

e|--------------------------------|
B|--------------------------------|
G|-12-12-12--7-7-7--9-9-9--9-9-9--| (palm muted) 2x
D|-12-12-12--7-7-7--9-9-9--9-9-9--|
A|-10-10-10--5-5-5--7-7-7--7-7-7--|
E|--------------------------------|

 tapos eto: Em-G-D-A- (2x)


VERSE: Em-D-C#m--

 Narito palagi, di nawawala

 And bendisyon ng pari, laging nasa kanya

 Sing-taas ng ulap  ang kanyang tindig

 Nakaupo sa palad  ang buong daigdig


CHORUS: Em-G-D-A-

 Ahh! Siya ay dambuhala

 siya'y nakakalula

 Dadalhin ka niya

 sa sukdulan


BRIDGE:

e|-------------------------------|
B|-------------------------------|
G|-------------------------------| 4x
D|-7-7-7-7-7-7-7-7-7-7-7-7--5-5--|
A|-7-7-7-7-7-7-7-7-7-7-7-7--5-5--|
E|-5-5-5-5-5-5-5-5-5-5-5-5--3-3--|

tapos eto pagdating sa rap: Em-G-D-A

etc...

*note: Di ko sigurado yung pangatlong chord sa verse Em-D-__..
       Di ko kaya yung fill in pagkatapos ng unang chorus

NITRAM
05-22-10
02:11 PM
Tap to rate this tab
# A B C D E F G H I J K L M N O P Q R S T U V W X Y Z