Guitaretab - guitar tabs
Song name
# A B C D E F G H I J K L M N O P Q R S T U V W X Y Z

Ely Guerra - Tengo Frio tab

Bueno pues aquí les va una version de Tengo frío 
la saque de vista en un toquin de Ely , asi la toca ella...

(Intro)Versos
e|----------------------------------------------------|
B|----------------------------------------------------|
G|-------0---------0--------0-------------------------|
D|-----2---------0--------0---------------------------|
A|---2---------4--------2-----------------------------|
E|-0---------5--------3-------------------------------|
[ Tab from: http://www.guitaretab.com/e/ely-guerra/67342.html ]
(Arreglo)
e|----------------------------------------------------|
B|----------------------------------------------------|
G|----------------------------------------------------|
D|-----2p---------------------------------------------|
A|---0------------------------------------------------|
E|-0--------------------------------------------------|

(Coro)
e|----------------------------------------------------|
B|----------------------------------------------------|
G|-00000000--00000--00000-----------------------------|
D|-22222222--00000--00000-----------------------------|
A|-22222222--44444--22222-----------------------------|
E|-00000000--55555--33333-----------------------------|

*El arrlego va en los versos y va sobre el primer riff,
esto es todo el acompañamiento con guitarra (Ely), espero
y les sirva... saludos y que viva el rock!

www.elyguerra.com
Related for Tengo Frio tab
Advertisement will be closed in 10 seconds