Song name
# A B C D E F G H I J K L M N O P Q R S T U V W X Y Z

Ely Guerra - Ojos Claroslabios Rosas Acustic Version tab

Help us improve GuitareTab! Take a short survey!
beautiful song, in acustic form, enjoy...!

(intro)

e|----------------------------------------------------|
B|----------------------------------------------------|
G|----------------------------------------------------|
D|---xx-------xx-------xx-----------------------------|x2
A|-0-xx-----0-xx-----0-xx-----0-----------------------|
E|---xx-0-3---xx-0-3---xx-0-3-------------------------|

(Verse)

e|----------------------------------------------------|
B|----------------------------------------------------|
G|----------------------------------------------------|
D|------------------------0---------------------------|x2
A|-0------0------0-----0--3-0---2---0------3----------|
E|----0-3----0-3---0-3--------3---03---0-3------------|

Sent de momento
su piel y su aliento
Me vol el sentido 
No te miento

Lo v alejarse 
Pens en olvidarle
Pero fue tan fuerte 
Que no puedo

C  G  Am  Fmaj
uh uh uh uh uh  x2

(Chorus)
C             G         Am
Tengo el corazn herido
               Fmaj
Solo pienso en tus carios
C           G
Ojos claros, labios rosas
Am            Fmaj
Djame que te haga cosas

C         G
Tu mirada me lo ha dicho
Am        Fmaj
Soy deseo inadvertido
C            G            Am
Ojos claros, labios rosas

Creo que el fuego te provoca

(intro)

(verse)
Soe con su boca

Pens en su boca

Mor por su boca

Creemelo


C  G  Am  Fmaj
uh uh uh uh uh  x2

(Chorus)

(outro)Am 
  ^^^^ v ^^^^ v ^^^^
e|0000-0-0000-0-0000----|
B|1111-0-1111-0-1111----|
G|2222-0-2222-0-2222----|
D|2222-0-2222-0-2222----|x9
A|0000-0-0000-0-0000----|
E|0000-0-0000-0-0000----|

Solo espero que con el tiempo...x9
                   Am
...no te arrepientas
 Fmaj
|- - - -
|1 - - -
|- 2 - -
|- - 3 -
|- - -3-
|- - - -

end...  
www.elyguerra.com
Related for Ojos Claroslabios Rosas Acustic Version tab