Song name
# A B C D E F G H I J K L M N O P Q R S T U V W X Y Z

Elysia - Incinerate tab

Artist: Elysia
Song: Incinerate
Album: Masochist

Tabbed By: Mark Webster

Tuning: Drop B
(B F# B E G# C#)


/ - SLIDE UP TO          h - HAMMER ON
\ - SLIDE DOWN TO        p - PULL OF
~ - VIBRATO              * - PALM MUTE
" - TREMOLO PICKING     <> - ARTIFICAL HARMONIC


I noticed that nobody has tabbed this song yet... its easy to play

This tab is both guitars put together but the 2 guitars are pretty much the same.
Sounds just as good. Tremolo picking in the intro is like 2x each note.


-----------------------------------------------------|
-----------------------------------------------------|
-----------------------------------------------------|
-----------------------------------------------------|
-----8"-7"-10"-8"----7"-8"----5"-4"-7"-5"----8"-7"---|
--0"--------------7"-------5"-------------5"---------|



------------------------------------------------|
------------------------------------------------|
------------------------------------------------|
----------------------------0-0-0-0-0-0-0-0-0---|
-----8"-7"-10"-8"----7"-8"--0-0-0-0-0-0-0-0-0---|
--0"--------------7"--------0-0-0-0-0-0-0-0-0---|
                            * * * * * * * * *


-----------------------------------------------------|
-----------------------------------------------------|
-----------------------------------------------------|
-----------------------------------------------------|
-----8"-7"-10"-8"----7"-8"----5"-4"-7"-5"----8"-7"---|
--0"--------------7"-------5"-------------5"---------|



-----------------------------------------------------------------|
-----------------------------------------------------------------|
-----------------------------------------------------------------|
-----------------------------------------------------------------|
------8---7---10---8-------7---8-------5---4---7---5-----7---5---|
--0-0---0---0----0---0-7-7---7---7-5-5---5---5---5---5-5---5-----|
  * *   *   *    *   * * *   *   * * *   *   *   *   * *   *
  ^ ^ ^   ^    ^   ^   ^ ^ ^   ^   ^ ^ ^   ^   ^   ^ ^ ^ ^   ^ 
(if this is too hard them play "^" notes. noob. lol)

-----------------------------------------------------|
-----------------------------------------------------|
-----------------------------------------------------|
---------------------------------0-0-0-0-0-0-0-0-0---|
------8---7---10---8-------7---8-0-0-0-0-0-0-0-0-0---|
--0-0---0---0----0---0-7-7---7---0-0-0-0-0-0-0-0-0---|
  * *   *   *    *   * * *   *   * * * * * * * * *



--------------------------------------------------------------|
--------------------------------------------------------------|
--------------------------------------------------------------|
--0-0-0~--0-0-0--0-0-0--0-0-0~--0-0-0~--0-0-0--0-0-0----------|
--0-0-0~--0-0-0--0-0-0--0-0-0~--0-0-0~--0-0-0--0-0-0--5~-1~---|
--0-0-0~--0-0-0--0-0-0--0-0-0~--0-0-0~--0-0-0--0-0-0--8~-4~---|
  * * *   * * *  * * *  * * *   * * *   * * *  * * *



---------------------------------------------------------------------|
---------------------------------------------------------------------|
---------------------------------------------------------------------|
--0-0-0---0-0-0--0-0-0--0-0-0---0-0--8--0-0-0--0-0-0--0-0-0----------|
--0-0-0---0-0-0--0-0-0--0-0-0---0-0--8--0-0-0--0-0-0--0-0-0--5~-1~---|
--0-0-0---0-0-0--0-0-0--0-0-0---0-0--8--0-0-0--0-0-0--0-0-0--8~-4~---|
  * * *   * * *  * * *  * * *   * *     * * *  * * *  * * *



---------------------------------------------------------|
---------------------------------------------------------|
---------------------------------------------------------|
--0------7------10------10------7------7------5-8--7-5---|
--0-8-10---10-8-10-8-10----10-8-7-8-10---10-8-5-10-8-7---|
--0-------------10--------------7-------------5----------|



--------------------------|
--------------------------|
--------------------------|
--0~----------------------|
--0~----------------------|
--0~----------------------|



-----------------------|
-----------------------|
-----------------------|
--0-0--0-0-0--0-0-0~---|
--0-0--0-0-0--0-0-0~---|
--0-0--0-0-0--0-0-0~---|
  * *  * * *  * * *



----------------------------------|
----------------------------------|
----------------------------------|
--0-0--0-0-0--0-1-4-3-1-0-1--<4>--|
--0-0--0-0-0--0-1-4-3-1-0-1-------|
--0-0--0-0-0--0-1-4-3-1-0-1-------|
  * *  * * *  * * * * * * *



-----------------------|
-----------------------|
-----------------------|
--0-0--0-0-0--0-0-0~---|
--0-0--0-0-0--0-0-0~---|
--0-0--0-0-0--0-0-0~---|
  * *  * * *  * * *



----------------------------------|
----------------------------------|
----------------------------------|
--0-0--0-0-0--0-1-4-3-1-0-1--<4>--|
--0-0--0-0-0--0-1-4-3-1-0-1-------|
--0-0--0-0-0--0-1-4-3-1-0-1-------|
  * *  * * *  * * * * * * *



----------------------------------------------------------|
----------------------------------------------------------|
----------------------------------------------------------|
--0-0-0-4-3-1-0-0-0-0-8-8-0-3-6-6-6-6-6-6-1-4-4-4-4-3-1---|
--0-0-0-4-3-1-0-0-0-0-6-6-0-3-6-6-6-6-6-6-1-4-4-4-4-3-1---|
--0-0-0-4-3-1-0-0-0-0-----0-3-6-6-6-6-6-6-1-4-4-4-4-3-1---|
    * *         * * *     *                           



------------------------|
------------------------|
------------------------|
--0-0-0--0-0-0--0-0-0---|
--0-0-0--0-0-0--0-0-0---|
--0-0-0--0-0-0--0-0-0---|
  * * *  * * *  * * *



------------|
------------|
------------|
--5-8-4-7---|
--5-8-4-7---|
--5-8-4-7---|
  * * * *



------------------------|
------------------------|
------------------------|
--0-0-0--0-0-0--0-0-0---|
--0-0-0--0-0-0--0-0-0---|
--0-0-0--0-0-0--0-0-0---|
  * * *  * * *  * * *



------------|
------------|
------------|
--5-8-4-7---|
--5-8-4-7---|
--5-8-4-7---|
  * * * *



------------------------------------------------|
------------------------------------------------|
------------------------------------------------|
--0-0-0-0-0-0-0--0-0-0-0-0-0-0--0-0-0-0-0-0-0---|
--0-0-0-0-0-0-0--0-0-0-0-0-0-0--0-0-0-0-0-0-0---|
--0-0-0-0-0-0-0--0-0-0-0-0-0-0--0-0-0-0-0-0-0---|
  * * * * * * *  * * * * * * *  * * * * * * *



--------------------|
--------------------|
--------------------|
--4-3-1-3-4-3-1-3---|
--4-3-1-3-4-3-1-3---|
--4-3-1-3-4-3-1-3---|
  * * * * * * * *



------------------------------------------------|
------------------------------------------------|
------------------------------------------------|
--0-0-0-0-0-0-0--0-0-0-0-0-0-0--0-0-0-0-0-0-0---|
--0-0-0-0-0-0-0--0-0-0-0-0-0-0--0-0-0-0-0-0-0---|
--0-0-0-0-0-0-0--0-0-0-0-0-0-0--0-0-0-0-0-0-0---|
  * * * * * * *  * * * * * * *  * * * * * * *



---------------------|
---------------------|
---------------------|
--4-3-1-3-1-0--<4>---|
--4-3-1-3-1-0--------|
--4-3-1-3-1-0--------|
  * * * * * *



----------------------------|
----------------------------|
----------------------------|
--0-0-0--0-0-0-0--0-0-0-0---|
--0-0-0--0-0-0-0--0-0-0-0---|
--0-0-0--0-0-0-0--0-0-0-0---|
  * * *  * * * *  * * * *



----------------|
----------------|
----------------|
------8-----7---|
------5-----4---|
--5-8---4-7-----|
  * *   * *



----------------------------|
----------------------------|
----------------------------|
--0-0-0--0-0-0-0--0-0-0-0---|
--0-0-0--0-0-0-0--0-0-0-0---|
--0-0-0--0-0-0-0--0-0-0-0---|
  * * *  * * * *  * * * *



----------------|
----------------|
----------------|
------8-----7---|
------5-----4---|
--5-8---4-7-----|
  * *   * *



----------------------------|
----------------------------|
----------------------------|
--0-0-0--0-0-0-0--0-0-0-0---|
--0-0-0--0-0-0-0--0-0-0-0---|
--0-0-0--0-0-0-0--0-0-0-0---|
  * * *  * * * *  * * * *
Tap to rate this tab
 
# A B C D E F G H I J K L M N O P Q R S T U V W X Y Z