Song name
# A B C D E F G H I J K L M N O P Q R S T U V W X Y Z

Elysia - Killing Grounds tab

----------------------------------------------------------------------------
	                 Killing Grounds - Elysia
----------------------------------------------------------------------------
Tabbed by:Steven Theodoru
Email:stevo_651@hotmail.com

Tuning: Drop B
 
  Slide: /         Tremolo picking: Tp.  pull-off: P  hold: ~
  Palm Mute: Pm.   Hammer-on: H          Bend: b      Pinch harmonic: *

  Intro x2
C|-----------------------------------------------------------------------|
G|-----------------------------------------------------------------------|
E|-----------------------------------------------------------------------|
B|----0-0---------------0-0-0-0------------------------------------------|
F|----0-0---88887777----0-0-0-0--10101010888812121212--------------------|
B|----0-0---------------0-0-0-0------------------------------------------|
pm    . . tp........ pm . . . . tp...................

  Fill x1
C|-----------------------------------------------------------------------|
G|-----------------------------------------------------------------------|
E|-----------------------------------------------------------------------|
B|-----------------------------------------------------------------------|
F|-888888-777777-10101010-8888-12121212----------------------------------|
B|-----------------------------------------------------------------------|

Intro x4

Riff 1 x2      tremolo and palm mute at same time
C|-----------------------------------------------------------------------|
G|-----------------------------------------------------------------------|
E|-----------------------------------------------------------------------|
B|-----------------------------------------------------------------------|
F|-----------------------------------------------------------------------|
B|-7777-6666-4444-3333-12121212-8888-11111111-7777-----------------------|
   .... .... .... .... ........ .... ........ ....
                                      ^^^elevens
C|-----------------------------------------------------------------------|
G|-----------------------------------------------------------------------|
E|-----------------------------------------------------------------------|
B|-----------------------------------------------------------------------|
F|--------------------------12121212------11-11-11-11--------------------|
B|-7777-6666-4444-3333-8888----------7777--------------------------------|
   .... .... .... .... .... ........ .... ...........

Break x1
C|--------------------|
G|--------------------|
E|--------------------|
B|----14-14-15-16-17b-|
F|--------------------|
B|--------------------|

Riff 2A x1   Riff 2 x4
C|----------|------------------------------------------------------------|
G|----------|------------------------------------------------------------|
E|----------|------------------------------------------------------------|
B|--7-6-7-6-|-7-6-4-3--12-8-11-7-----------------------------------------|
F|--7-6-7-6-|-7-6-4-3--12-8-11-7-----------------------------------------|
B|--7-6-7-6-|-7-6-4-3--12-8-11-7-----------------------------------------|
            Pm. . . .   . . .  .
Break x1
Riff 2A x1

Riff 3 x4 [played slowly]
C|-----------------------------------------------------------------------|
G|-----------------------------------------------------------------------|
E|-----------------------------------------------------------------------|
B|-7-6-4-3--12/8-11/7--------------------------------------------------|
F|-7-6-4-3--12/8-11/7--------------------------------------------------|
B|-7-6-4-3--12/8-11/7--------------------------------------------------|
Pm . . . .

Break#2 hold open 9 seconds
C|------------|
G|------------|
E|------------|
B|-0~~~-------|
F|-0~~~-------|
B|-0~~~-------|
                                    
Riff 4 x4 [played under solo]
C|-----------------------------------------------------------------------|
G|-----------------------------------------------------------------------|
E|-----------------------------------------------------------------------|
B|-0-0000-----3-5-0-3-3333-----3-5-0-5-5555-----5---0-0000-----5h7-------|
F|-0-0000-5-3-----0-3-3333-5-3-----0-5-5555-5-3---3-0-0000-5-3-----5-----|
B|-0-0000---------0-3-3333---------0-5-5555---------0-0000---------------|
Pm   ....             ....             ....           ....

Break #3 x4
C|--------------|
G|--------------|
E|--------------|
B|-3~~-333------|
F|-3~~-333------|
B|-3~~-333------|
Pm     ...  

Riff 5 part A        part B                        Part C
C|-----------------|------------------------------|------------------------|
G|-----------------|------------------------------|------------------------|
E|-----------------|------------------------------|------------------------|
B|-33-3333-3-7p6-4-|--33-3-3--8888----------------|-33-33------------------|
F|-33-3333-3-7p6-4-|--33-3-3-------5555-4444------|-33-33------------------|
B|-33-3333-3-7p6-4-|--33-3-3-----------------7777-|-33-33------------------|
pm .. .... .         .. . . tp.... ... .... .... pm....

Repeat Part A+B x4

Riff 6 x6
C|------------------------------------------------------------------------|
G|------------------------------------------------------------------------|
E|------------------------------------77776666----------------------------|
B|-3333-3/7-3333-3/7--7-6----3333-3/7------------77778888------------------|
F|-3333-3/7-3333-3/7------9--3333-3/7--------------------------------------|
B|-3333-3/7-3333-3/7---------3333-3/7--------------------------------------|
pm ....     ....             ....    tp .................

Fill #2 x2
C|-----------------------------------------------------------------------|
G|-----------------------------------------------------------------------|
E|---77776666------------------------------------------------------------|
B|-----------77778888-7777/3333/6666/2222--------------------------------|
F|-----------------------------------------------------------------------|
B|-----------------------------------------------------------------------|
 Tp  ....................................
Riff 7 x4
C|-----------------------------------------------------------------------|
G|-----------------------------------------------------------------------|
E|-----------------------------------------------------------------------|
B|-12-11-7-8--3-5*-3-4*--------------------------------------------------|
F|-12-11-7-8--3----3-----------------------------------------------------|
B|-12-11-7-8--3----3-----------------------------------------------------|

Outro:
Riff 7 x6
C|-----------------------------------------------------------------------|
G|-----------------------------------------------------------------------|
E|-----------------------------------------------------------------------|
B|--10101010-8888-1010-88-11111111-10101010-13131313-8888----------------|
F|-----------------------------------------------------------------------|
B|-----------------------------------------------------------------------|
Tp  ........ .... . .  .. .  . . . .  . . .  . . . . ....
Ending Riff
C|------------------|
G|------------------|
E|------------------|
B|--33-3~-----------|
F|--33-3~-----------|
B|--33-3~-----------|
pm  .. 

 THE END!! THAT WAS KILLING GROUNDS BY ELYSIA!!!!!
email me if u find n e mistakes! emails at top XD!
and for Riff 7 the harmonics MIGHT BE wrong im still not sure
but if u can find the better place for the harmonics and sounds more accurate, use it!

Tap to rate this tab
# A B C D E F G H I J K L M N O P Q R S T U V W X Y Z